  0
SECTION
  2
HEADER
  9
$ACADVER
  1
AC1021
  9
$ACADMAINTVER
 70
    25
  9
$DWGCODEPAGE
  3
ANSI_1252
  9
$INSBASE
 10
0.0
 20
0.0
 30
0.0
  9
$EXTMIN
 10
1.000000000000000E+20
 20
1.000000000000000E+20
 30
1.000000000000000E+20
  9
$EXTMAX
 10
-1.000000000000000E+20
 20
-1.000000000000000E+20
 30
-1.000000000000000E+20
  9
$LIMMIN
 10
0.0
 20
0.0
  9
$LIMMAX
 10
12.0
 20
9.0
  9
$ORTHOMODE
 70
     0
  9
$REGENMODE
 70
     1
  9
$FILLMODE
 70
     1
  9
$QTEXTMODE
 70
     0
  9
$MIRRTEXT
 70
     1
  9
$LTSCALE
 40
1.0
  9
$ATTMODE
 70
     1
  9
$TEXTSIZE
 40
0.2
  9
$TRACEWID
 40
0.05
  9
$TEXTSTYLE
  7
Standard
  9
$CLAYER
  8
Layer 01
  9
$CELTYPE
  6
ByLayer
  9
$CECOLOR
 62
   256
  9
$CELTSCALE
 40
1.0
  9
$DISPSILH
 70
     0
  9
$DIMSCALE
 40
1.0
  9
$DIMASZ
 40
0.18
  9
$DIMEXO
 40
0.0625
  9
$DIMDLI
 40
0.38
  9
$DIMRND
 40
0.0
  9
$DIMDLE
 40
0.0
  9
$DIMEXE
 40
0.18
  9
$DIMTP
 40
0.0
  9
$DIMTM
 40
0.0
  9
$DIMTXT
 40
0.18
  9
$DIMCEN
 40
0.09
  9
$DIMTSZ
 40
0.0
  9
$DIMTOL
 70
     0
  9
$DIMLIM
 70
     0
  9
$DIMTIH
 70
     1
  9
$DIMTOH
 70
     1
  9
$DIMSE1
 70
     0
  9
$DIMSE2
 70
     0
  9
$DIMTAD
 70
     0
  9
$DIMZIN
 70
     0
  9
$DIMBLK
  1

  9
$DIMASO
 70
     1
  9
$DIMSHO
 70
     1
  9
$DIMPOST
  1

  9
$DIMAPOST
  1

  9
$DIMALT
 70
     0
  9
$DIMALTD
 70
     2
  9
$DIMALTF
 40
25.4
  9
$DIMLFAC
 40
1.0
  9
$DIMTOFL
 70
     0
  9
$DIMTVP
 40
0.0
  9
$DIMTIX
 70
     0
  9
$DIMSOXD
 70
     0
  9
$DIMSAH
 70
     0
  9
$DIMBLK1
  1

  9
$DIMBLK2
  1

  9
$DIMSTYLE
  2
STANDARD_ACAD
  9
$DIMCLRD
 70
     0
  9
$DIMCLRE
 70
     0
  9
$DIMCLRT
 70
     0
  9
$DIMTFAC
 40
1.0
  9
$DIMGAP
 40
0.09
  9
$DIMJUST
 70
     0
  9
$DIMSD1
 70
     0
  9
$DIMSD2
 70
     0
  9
$DIMTOLJ
 70
     1
  9
$DIMTZIN
 70
     0
  9
$DIMALTZ
 70
     0
  9
$DIMALTTZ
 70
     0
  9
$DIMUPT
 70
     0
  9
$DIMDEC
 70
     4
  9
$DIMTDEC
 70
     4
  9
$DIMALTU
 70
     2
  9
$DIMALTTD
 70
     2
  9
$DIMTXSTY
  7
Standard
  9
$DIMAUNIT
 70
     0
  9
$DIMADEC
 70
     0
  9
$DIMALTRND
 40
0.0
  9
$DIMAZIN
 70
     0
  9
$DIMDSEP
 70
    46
  9
$DIMATFIT
 70
     3
  9
$DIMFRAC
 70
     0
  9
$DIMLDRBLK
  1

  9
$DIMLUNIT
 70
     2
  9
$DIMLWD
 70
    -2
  9
$DIMLWE
 70
    -2
  9
$DIMTMOVE
 70
     2
  9
$DIMFXL
 40
1.0
  9
$DIMFXLON
 70
     0
  9
$DIMJOGANG
 40
0.7853981633974483
  9
$DIMTFILL
 70
     0
  9
$DIMTFILLCLR
 70
     0
  9
$DIMARCSYM
 70
     0
  9
$DIMLTYPE
  6

  9
$DIMLTEX1
  6

  9
$DIMLTEX2
  6

  9
$LUNITS
 70
     2
  9
$LUPREC
 70
     3
  9
$SKETCHINC
 40
0.1
  9
$FILLETRAD
 40
0.5
  9
$AUNITS
 70
     0
  9
$AUPREC
 70
     0
  9
$MENU
  1
.
  9
$ELEVATION
 40
0.0
  9
$PELEVATION
 40
0.0
  9
$THICKNESS
 40
0.0
  9
$LIMCHECK
 70
     0
  9
$CHAMFERA
 40
0.0
  9
$CHAMFERB
 40
0.0
  9
$CHAMFERC
 40
0.0
  9
$CHAMFERD
 40
0.0
  9
$SKPOLY
 70
     0
  9
$TDCREATE
 40
2458799.416548461
  9
$TDUCREATE
 40
2458799.374881794
  9
$TDUPDATE
 40
2458799.416573611
  9
$TDUUPDATE
 40
2458799.374906945
  9
$TDINDWG
 40
0.0000000116
  9
$TDUSRTIMER
 40
0.0000000116
  9
$USRTIMER
 70
     1
  9
$ANGBASE
 50
0.0
  9
$ANGDIR
 70
     0
  9
$PDMODE
 70
     0
  9
$PDSIZE
 40
0.0
  9
$PLINEWID
 40
0.0
  9
$SPLFRAME
 70
     0
  9
$SPLINETYPE
 70
     6
  9
$SPLINESEGS
 70
     8
  9
$HANDSEED
  5
3AC
  9
$SURFTAB1
 70
     6
  9
$SURFTAB2
 70
     6
  9
$SURFTYPE
 70
     6
  9
$SURFU
 70
     6
  9
$SURFV
 70
     6
  9
$UCSBASE
  2

  9
$UCSNAME
  2

  9
$UCSORG
 10
0.0
 20
0.0
 30
0.0
  9
$UCSXDIR
 10
1.0
 20
0.0
 30
0.0
  9
$UCSYDIR
 10
0.0
 20
1.0
 30
0.0
  9
$UCSORTHOREF
  2

  9
$UCSORTHOVIEW
 70
     0
  9
$UCSORGTOP
 10
0.0
 20
0.0
 30
0.0
  9
$UCSORGBOTTOM
 10
0.0
 20
0.0
 30
0.0
  9
$UCSORGLEFT
 10
0.0
 20
0.0
 30
0.0
  9
$UCSORGRIGHT
 10
0.0
 20
0.0
 30
0.0
  9
$UCSORGFRONT
 10
0.0
 20
0.0
 30
0.0
  9
$UCSORGBACK
 10
0.0
 20
0.0
 30
0.0
  9
$PUCSBASE
  2

  9
$PUCSNAME
  2

  9
$PUCSORG
 10
0.0
 20
0.0
 30
0.0
  9
$PUCSXDIR
 10
1.0
 20
0.0
 30
0.0
  9
$PUCSYDIR
 10
0.0
 20
1.0
 30
0.0
  9
$PUCSORTHOREF
  2

  9
$PUCSORTHOVIEW
 70
     0
  9
$PUCSORGTOP
 10
0.0
 20
0.0
 30
0.0
  9
$PUCSORGBOTTOM
 10
0.0
 20
0.0
 30
0.0
  9
$PUCSORGLEFT
 10
0.0
 20
0.0
 30
0.0
  9
$PUCSORGRIGHT
 10
0.0
 20
0.0
 30
0.0
  9
$PUCSORGFRONT
 10
0.0
 20
0.0
 30
0.0
  9
$PUCSORGBACK
 10
0.0
 20
0.0
 30
0.0
  9
$USERI1
 70
     0
  9
$USERI2
 70
     0
  9
$USERI3
 70
     0
  9
$USERI4
 70
     0
  9
$USERI5
 70
     0
  9
$USERR1
 40
0.0
  9
$USERR2
 40
0.0
  9
$USERR3
 40
0.0
  9
$USERR4
 40
0.0
  9
$USERR5
 40
0.0
  9
$WORLDVIEW
 70
     1
  9
$SHADEDGE
 70
     3
  9
$SHADEDIF
 70
    70
  9
$TILEMODE
 70
     1
  9
$MAXACTVP
 70
    64
  9
$PINSBASE
 10
0.0
 20
0.0
 30
0.0
  9
$PLIMCHECK
 70
     0
  9
$PEXTMIN
 10
1.000000000000000E+20
 20
1.000000000000000E+20
 30
1.000000000000000E+20
  9
$PEXTMAX
 10
-1.000000000000000E+20
 20
-1.000000000000000E+20
 30
-1.000000000000000E+20
  9
$PLIMMIN
 10
0.0
 20
0.0
  9
$PLIMMAX
 10
12.0
 20
9.0
  9
$UNITMODE
 70
     0
  9
$VISRETAIN
 70
     1
  9
$PLINEGEN
 70
     0
  9
$PSLTSCALE
 70
     1
  9
$TREEDEPTH
 70
  3020
  9
$CMLSTYLE
  2
Standard
  9
$CMLJUST
 70
     0
  9
$CMLSCALE
 40
1.0
  9
$PROXYGRAPHICS
 70
     1
  9
$MEASUREMENT
 70
     1
  9
$CELWEIGHT
370
    -1
  9
$ENDCAPS
280
     0
  9
$JOINSTYLE
280
     0
  9
$LWDISPLAY
290
     0
  9
$INSUNITS
 70
     4
  9
$HYPERLINKBASE
  1

  9
$STYLESHEET
  1

  9
$XEDIT
290
     1
  9
$CEPSNTYPE
380
     0
  9
$PSTYLEMODE
290
     1
  9
$FINGERPRINTGUID
  2
{1f27e63d-d291-453e-a3ee-6223f7e03260}
  9
$VERSIONGUID
  2
{FAEB1C32-E019-11D5-929B-00C0DF256EC4}
  9
$EXTNAMES
290
     1
  9
$PSVPSCALE
 40
0.0
  9
$OLESTARTUP
290
     0
  9
$SORTENTS
280
   127
  9
$INDEXCTL
280
     0
  9
$HIDETEXT
280
     1
  9
$XCLIPFRAME
290
     0
  9
$HALOGAP
280
     0
  9
$OBSCOLOR
 70
   257
  9
$OBSLTYPE
280
     0
  9
$INTERSECTIONDISPLAY
280
     0
  9
$INTERSECTIONCOLOR
 70
   257
  9
$DIMASSOC
280
     2
  9
$PROJECTNAME
  1

  9
$CAMERADISPLAY
290
     0
  9
$LENSLENGTH
 40
50.0
  9
$CAMERAHEIGHT
 40
0.0
  9
$STEPSPERSEC
 40
2.0
  9
$STEPSIZE
 40
6.0
  9
$3DDWFPREC
 40
2.0
  9
$PSOLWIDTH
 40
0.25
  9
$PSOLHEIGHT
 40
4.0
  9
$LOFTANG1
 40
1.570796326794897
  9
$LOFTANG2
 40
1.570796326794897
  9
$LOFTMAG1
 40
0.0
  9
$LOFTMAG2
 40
0.0
  9
$LOFTPARAM
 70
     7
  9
$LOFTNORMALS
280
     1
  9
$LATITUDE
 40
37.795
  9
$LONGITUDE
 40
-122.394
  9
$NORTHDIRECTION
 40
0.0
  9
$TIMEZONE
 70
 -8000
  9
$LIGHTGLYPHDISPLAY
280
     1
  9
$TILEMODELIGHTSYNCH
280
     1
  9
$CMATERIAL
347
44
  9
$SOLIDHIST
280
     0
  9
$SHOWHIST
280
     1
  9
$DWFFRAME
280
     2
  9
$DGNFRAME
280
     2
  9
$REALWORLDSCALE
290
     1
  9
$INTERFERECOLOR
 62
   256
  9
$CSHADOW
280
     0
  9
$SHADOWPLANELOCATION
 40
0.0
  0
ENDSEC
  0
SECTION
  2
CLASSES
  0
CLASS
  1
ACDBDICTIONARYWDFLT
  2
AcDbDictionaryWithDefault
  3
ObjectDBX Classes
 90
        0
 91
        3
280
     0
281
     0
  0
CLASS
  1
VISUALSTYLE
  2
AcDbVisualStyle
  3
ObjectDBX Classes
 90
     4095
 91
        3
280
     0
281
     0
  0
CLASS
  1
MATERIAL
  2
AcDbMaterial
  3
ObjectDBX Classes
 90
     1153
 91
        3
280
     0
281
     0
  0
CLASS
  1
SCALE
  2
AcDbScale
  3
ObjectDBX Classes
 90
     1153
 91
        3
280
     0
281
     0
  0
CLASS
  1
TABLESTYLE
  2
AcDbTableStyle
  3
ObjectDBX Classes
 90
     4095
 91
        3
280
     0
281
     0
  0
CLASS
  1
MLEADERSTYLE
  2
AcDbMLeaderStyle
  3
ACDB_MLEADERSTYLE_CLASS
 90
     4095
 91
        3
280
     0
281
     0
  0
CLASS
  1
SUN
  2
AcDbSun
  3
SCENEOE
 90
     1153
 91
        3
280
     0
281
     0
  0
CLASS
  1
DICTIONARYVAR
  2
AcDbDictionaryVar
  3
ObjectDBX Classes
 90
        0
 91
        3
280
     0
281
     0
  0
CLASS
  1
CELLSTYLEMAP
  2
AcDbCellStyleMap
  3
ObjectDBX Classes
 90
     1152
 91
        3
280
     0
281
     0
  0
ENDSEC
  0
SECTION
  2
TABLES
  0
TABLE
  2
VPORT
  5
8
330
0
100
AcDbSymbolTable
 70
     1
  0
VPORT
  5
29
330
8
100
AcDbSymbolTableRecord
100
AcDbViewportTableRecord
  2
*Active
 70
     0
 10
0.0
 20
0.0
 11
1.0
 21
1.0
 12
10.42990654205607
 22
4.5
 13
0.0
 23
0.0
 14
0.5
 24
0.5
 15
0.5
 25
0.5
 16
0.0
 26
0.0
 36
1.0
 17
0.0
 27
0.0
 37
0.0
 40
9.0
 41
1.972972972850329
 42
50.0
 43
0.0
 44
0.0
 50
0.0
 51
0.0
 71
     0
 72
   100
 73
     1
 74
     3
 75
     0
 76
     0
 77
     0
 78
     0
281
     0
 65
     1
110
0.0
120
0.0
130
0.0
111
1.0
121
0.0
131
0.0
112
0.0
122
1.0
132
0.0
 79
     0
146
0.0
348
2F
 60
     3
 61
     5
292
     1
282
     1
141
0.0
142
0.0
 63
   250
361
6D
  0
ENDTAB
  0
TABLE
  2
LTYPE
  5
5
330
0
100
AcDbSymbolTable
 70
     1
  0
LTYPE
  5
14
330
5
100
AcDbSymbolTableRecord
100
AcDbLinetypeTableRecord
  2
ByBlock
 70
     0
  3

 72
    65
 73
     0
 40
0.0
  0
LTYPE
  5
15
330
5
100
AcDbSymbolTableRecord
100
AcDbLinetypeTableRecord
  2
ByLayer
 70
     0
  3

 72
    65
 73
     0
 40
0.0
  0
LTYPE
  5
16
330
5
100
AcDbSymbolTableRecord
100
AcDbLinetypeTableRecord
  2
Continuous
 70
     0
  3
Solid line
 72
    65
 73
     0
 40
0.0
  0
ENDTAB
  0
TABLE
  2
LAYER
  5
2
330
0
100
AcDbSymbolTable
 70
     2
  0
LAYER
  5
10
330
2
100
AcDbSymbolTableRecord
100
AcDbLayerTableRecord
  2
0
 70
     0
 62
     7
  6
Continuous
370
    -3
390
F
347
46
  0
LAYER
  5
6E
330
2
100
AcDbSymbolTableRecord
100
AcDbLayerTableRecord
  2
Layer 01
 70
     0
 62
    18
420
        0
  6
Continuous
370
    -3
390
F
347
46
  0
ENDTAB
  0
TABLE
  2
STYLE
  5
3
330
0
100
AcDbSymbolTable
 70
     1
  0
STYLE
  5
11
330
3
100
AcDbSymbolTableRecord
100
AcDbTextStyleTableRecord
  2
Standard
 70
     0
 40
0.0
 41
1.0
 50
0.0
 71
     0
 42
0.2
  3
txt
  4

  0
ENDTAB
  0
TABLE
  2
VIEW
  5
6
330
0
100
AcDbSymbolTable
 70
     0
  0
ENDTAB
  0
TABLE
  2
UCS
  5
7
330
0
100
AcDbSymbolTable
 70
     0
  0
ENDTAB
  0
TABLE
  2
APPID
  5
9
330
0
100
AcDbSymbolTable
 70
     2
  0
APPID
  5
12
330
9
100
AcDbSymbolTableRecord
100
AcDbRegAppTableRecord
  2
ACAD
 70
     0
  0
APPID
  5
3A4
330
9
100
AcDbSymbolTableRecord
100
AcDbRegAppTableRecord
  2
ACAD_MLEADERVER
 70
     0
  0
ENDTAB
  0
TABLE
  2
DIMSTYLE
  5
A
330
0
100
AcDbSymbolTable
 70
     1
100
AcDbDimStyleTable
  0
DIMSTYLE
105
27
330
A
100
AcDbSymbolTableRecord
100
AcDbDimStyleTableRecord
  2
STANDARD_ACAD
 70
     0
178
     0
340
11
  0
ENDTAB
  0
TABLE
  2
BLOCK_RECORD
  5
1
330
0
100
AcDbSymbolTable
 70
     5
  0
BLOCK_RECORD
  5
1F
330
1
100
AcDbSymbolTableRecord
100
AcDbBlockTableRecord
  2
*Model_Space
340
22
 70
     0
280
     1
281
     0
  0
BLOCK_RECORD
  5
1B
330
1
100
AcDbSymbolTableRecord
100
AcDbBlockTableRecord
  2
*Paper_Space
340
1E
 70
     0
280
     1
281
     0
  0
BLOCK_RECORD
  5
23
330
1
100
AcDbSymbolTableRecord
100
AcDbBlockTableRecord
  2
*Paper_Space0
340
26
 70
     0
280
     1
281
     0
  0
BLOCK_RECORD
  5
6F
330
1
100
AcDbSymbolTableRecord
100
AcDbBlockTableRecord
  2
D81C_720_ASM
340
0
102
{BLKREFS
331
36E
102
}
 70
     0
280
     1
281
     0
  0
BLOCK_RECORD
  5
70
330
1
100
AcDbSymbolTableRecord
100
AcDbBlockTableRecord
  2
D81C_720
340
0
102
{BLKREFS
331
15D
102
}
 70
     0
280
     1
281
     0
  0
BLOCK_RECORD
  5
15E
330
1
100
AcDbSymbolTableRecord
100
AcDbBlockTableRecord
  2
D8107215_FOND-ROSONE-720
340
0
102
{BLKREFS
331
2F7
102
}
 70
     0
280
     1
281
     0
  0
BLOCK_RECORD
  5
2F8
330
1
100
AcDbSymbolTableRecord
100
AcDbBlockTableRecord
  2
D8107216_COP-ROSONE-720
340
0
102
{BLKREFS
331
36B
102
}
 70
     0
280
     1
281
     0
  0
ENDTAB
  0
ENDSEC
  0
SECTION
  2
BLOCKS
  0
BLOCK
  5
20
330
1F
100
AcDbEntity
  8
0
100
AcDbBlockBegin
  2
*Model_Space
 70
     0
 10
0.0
 20
0.0
 30
0.0
  3
*Model_Space
  1

  0
ENDBLK
  5
21
330
1F
100
AcDbEntity
  8
0
100
AcDbBlockEnd
  0
BLOCK
  5
1C
330
1B
100
AcDbEntity
 67
     1
  8
0
100
AcDbBlockBegin
  2
*Paper_Space
 70
     0
 10
0.0
 20
0.0
 30
0.0
  3
*Paper_Space
  1

  0
ENDBLK
  5
1D
330
1B
100
AcDbEntity
 67
     1
  8
0
100
AcDbBlockEnd
  0
BLOCK
  5
24
330
23
100
AcDbEntity
  8
0
100
AcDbBlockBegin
  2
*Paper_Space0
 70
     0
 10
0.0
 20
0.0
 30
0.0
  3
*Paper_Space0
  1

  0
ENDBLK
  5
25
330
23
100
AcDbEntity
  8
0
100
AcDbBlockEnd
  0
BLOCK
  5
36C
330
6F
100
AcDbEntity
  8
0
100
AcDbBlockBegin
  2
D81C_720_ASM
 70
     0
 10
0.0
 20
0.0
 30
0.0
  3
D81C_720_ASM
  1

  0
INSERT
  5
15D
330
6F
100
AcDbEntity
  8
Layer 01
100
AcDbBlockReference
  2
D81C_720
 10
0.0
 20
0.0
 30
0.0
  0
INSERT
  5
2F7
330
6F
100
AcDbEntity
  8
Layer 01
100
AcDbBlockReference
  2
D8107215_FOND-ROSONE-720
 10
343.0
 20
1000.0
 30
0.0
  0
INSERT
  5
36B
330
6F
100
AcDbEntity
  8
Layer 01
100
AcDbBlockReference
  2
D8107216_COP-ROSONE-720
 10
-343.0
 20
1008.0
 30
0.0
210
0.0
220
0.0
230
-1.0
  0
ENDBLK
  5
36D
330
6F
100
AcDbEntity
  8
0
100
AcDbBlockEnd
  0
BLOCK
  5
15B
330
70
100
AcDbEntity
  8
0
100
AcDbBlockBegin
  2
D81C_720
 70
     0
 10
0.0
 20
0.0
 30
0.0
  3
D81C_720
  1

  0
ARC
  5
71
330
70
100
AcDbEntity
  8
Layer 01
100
AcDbCircle
 10
10.40205486171154
 20
0.0
 30
21.80978452096772
 40
3.500000000003352
210
0.9862946270633413
220
0.1649936623812705
230
7.000482359107640E-21
100
AcDbArc
 50
180.0
 51
0.0
  0
SPLINE
  5
72
330
70
100
AcDbEntity
  8
Layer 01
100
AcDbSpline
210
0.0
220
0.0
230
1.0
 70
    24
 71
     2
 72
     6
 73
     3
 74
     0
 42
0.000000001
 43
0.0000000001
 40
-1.131370849904505
 40
-1.131370849904505
 40
-1.131370849904505
 40
0.0
 40
0.0
 40
0.0
 10
21.0291187526
 20
11.32696648122
 30
0.0
 10
20.700598366725
 20
10.86645116544
 30
0.0
 10
20.37207798085
 20
10.40593584966
 30
0.0
  0
ARC
  5
73
330
70
100
AcDbEntity
  8
Layer 01
100
AcDbCircle
 10
10.40205486170469
 20
0.0
 30
22.6097845209748
 40
2.699999999999086
210
0.9862946270632966
220
0.1649936623815373
230
2.758008134972518E-22
100
AcDbArc
 50
180.0
 51
0.0
  0
SPLINE
  5
74
330
70
100
AcDbEntity
  8
Layer 01
100
AcDbSpline
210
0.0
220
0.0
230
1.0
 70
    24
 71
     2
 72
     6
 73
     3
 74
     0
 42
0.000000001
 43
0.0000000001
 40
-1.131370849904506
 40
-1.131370849904506
 40
-1.131370849904506
 40
0.0
 40
0.0
 40
0.0
 10
19.21712234418001
 20
17.30999823911
 30
0.0
 10
19.67763765996
 20
16.981477853235
 30
0.0
 10
20.13815297574
 20
16.65295746736
 30
0.0
  0
SPLINE
  5
75
330
70
100
AcDbEntity
  8
Layer 01
100
AcDbSpline
210
0.0
220
0.0
230
1.0
 70
    24
 71
     2
 72
     6
 73
     3
 74
     0
 42
0.000000001
 43
0.0000000001
 40
-0.8636605165401766
 40
-0.8636605165401766
 40
-0.8636605165401766
 40
0.0
 40
0.0
 40
0.0
 10
20.37207798085
 20
10.40593584966
 30
0.0
 10
19.946166117315
 20
10.33468659382
 30
0.0
 10
19.52025425378
 20
10.26343733798
 30
0.0
  0
SPLINE
  5
76
330
70
100
AcDbEntity
  8
Layer 01
100
AcDbSpline
210
0.0
220
0.0
230
1.0
 70
    24
 71
     2
 72
     6
 73
     3
 74
     0
 42
0.000000001
 43
0.0000000001
 40
-0.8636605165401768
 40
-0.8636605165401768
 40
-0.8636605165401768
 40
0.0
 40
0.0
 40
0.0
 10
18.36529861711
 20
17.16749972743
 30
0.0
 10
18.791210480645
 20
17.23874898327
 30
0.0
 10
19.21712234418001
 20
17.30999823911
 30
0.0
  0
SPLINE
  5
77
330
70
100
AcDbEntity
  8
Layer 01
100
AcDbSpline
210
0.0
220
0.0
230
1.0
 70
    24
 71
     2
 72
     6
 73
     3
 74
     0
 42
0.000000001
 43
0.0000000001
 40
-2.336339483457159
 40
-2.336339483457159
 40
-2.336339483457159
 40
0.0
 40
0.0
 40
0.0
 10
14.08839028345
 20
16.45203119472
 30
0.0
 10
15.240549823215
 20
16.64477179869
 30
0.0
 10
16.39270936298
 20
16.83751240266
 30
0.0
  0
ARC
  5
78
330
70
100
AcDbEntity
  8
Layer 01
100
AcDbCircle
 10
10.40205486170516
 20
0.0
 30
16.6097845209685
 40
3.499999999999407
210
0.9862946270633102
220
0.1649936623814562
230
1.486523230695204E-20
100
AcDbArc
 50
180.0
 51
0.0
  0
SPLINE
  5
79
330
70
100
AcDbEntity
  8
Layer 01
100
AcDbSpline
210
0.0
220
0.0
230
1.0
 70
    24
 71
     2
 72
     6
 73
     3
 74
     0
 42
0.000000001
 43
0.0000000001
 40
-2.336339483457655
 40
-2.336339483457655
 40
-2.336339483457655
 40
0.0
 40
0.0
 40
0.0
 10
17.54766499965
 20
9.933450013221
 30
0.0
 10
16.395505459885
 20
9.7407094092495
 30
0.0
 10
15.24334592012
 20
9.547968805278
 30
0.0
  0
SPLINE
  5
7A
330
70
100
AcDbEntity
  8
Layer 01
100
AcDbSpline
 70
     0
 71
     3
 72
    25
 73
    21
 74
     0
 42
0.000000001
 43
0.0000000001
 40
0.0
 40
0.0
 40
0.0
 40
0.0
 40
0.1761238970843614
 40
0.3522477941686594
 40
0.5283716912531475
 40
0.7044955883373187
 40
0.880619485421807
 40
1.056743382505978
 40
1.232867279590466
 40
1.408991176674637
 40
1.585115073759126
 40
1.761238970843614
 40
1.937362867927785
 40
2.113486765012274
 40
2.289610662096444
 40
2.465734559180933
 40
2.641858456265104
 40
2.817982353349592
 40
2.994106250433763
 40
3.170230147518251
 40
3.170230147518251
 40
3.170230147518251
 40
3.170230147518251
 10
19.52025425378
 20
10.26343733798
 30
0.0
 10
19.52025425378
 20
10.26343733798
 30
-0.05807101570983
 10
19.51011510247
 20
10.26460498077
 30
-0.1728462129123
 10
19.46230840715
 20
10.26973763542
 30
-0.345758032358
 10
19.38607463868
 20
10.2767543495
 30
-0.5032497148359
 10
19.28396684622
 20
10.28388248795
 30
-0.6455931294145
 10
19.15663771322
 20
10.28899993354
 30
-0.770541044756
 10
19.00889741074
 20
10.28938635566
 30
-0.8719716033312
 10
18.85028922024
 20
10.28291460775
 30
-0.9447799978271
 10
18.68335394077
 20
10.26820475484
 30
-0.9896464412355
 10
18.50893046643
 20
10.24378509382
 30
-1.005258236536
 10
18.33491339192
 20
10.20981438483
 30
-0.9893181742317
 10
18.17047652558
 20
10.16873680798
 30
-0.9432046998137
 10
18.01937715543
 20
10.12330008911
 30
-0.8698518998958
 10
17.88173493967
 20
10.07541119863
 30
-0.7690842889155
 10
17.76454472634
 20
10.02972515137
 30
-0.6456632713665
 10
17.66993459778
 20
9.989598876109
 30
-0.5028506784137
 10
17.60019553746
 20
9.958168367119
 30
-0.345125196252
 10
17.55680934782
 20
9.937824262768
 30
-0.1723660096804
 10
17.54766499965
 20
9.933450013221
 30
-0.05787638205907
 10
17.54766499965
 20
9.933450013221
 30
0.0
  0
SPLINE
  5
7B
330
70
100
AcDbEntity
  8
Layer 01
100
AcDbSpline
210
0.0
220
0.0
230
1.0
 70
    24
 71
     2
 72
     6
 73
     3
 74
     0
 42
0.000000001
 43
0.0000000001
 40
0.0
 40
0.0
 40
0.0
 40
6.999999999995853
 40
6.999999999995853
 40
6.999999999995853
 10
17.54766499965
 20
9.933450013221
 30
0.0
 10
16.970187181315
 20
13.3854812079405
 30
0.0
 10
16.39270936298
 20
16.83751240266
 30
0.0
  0
SPLINE
  5
7C
330
70
100
AcDbEntity
  8
Layer 01
100
AcDbSpline
 70
     0
 71
     3
 72
    25
 73
    21
 74
     0
 42
0.000000001
 43
0.0000000001
 40
0.0
 40
0.0
 40
0.0
 40
0.0
 40
0.1761239549181846
 40
0.3522479098363058
 40
0.5283718647546172
 40
0.7044958196726117
 40
0.880619774590923
 40
1.056743729508917
 40
1.232867684427229
 40
1.408991639345223
 40
1.585115594263535
 40
1.761239549181846
 40
1.93736350409984
 40
2.113487459018152
 40
2.289611413936147
 40
2.465735368854458
 40
2.641859323772452
 40
2.817983278690764
 40
2.994107233608758
 40
3.170231188527069
 40
3.170231188527069
 40
3.170231188527069
 40
3.170231188527069
 10
16.39270936298
 20
16.83751240266
 30
0.0
 10
16.39270936298
 20
16.83751240266
 30
-0.05771332396163
 10
16.40274117702
 20
16.8363574918
 30
-0.1719416996268
 10
16.45007586894
 20
16.83127195817
 30
-0.3441811010534
 10
16.526222827
 20
16.8242462088
 30
-0.5022367789557
 10
16.62854693737
 20
16.81709727717
 30
-0.6449988799525
 10
16.75426745556
 20
16.8120209232
 30
-0.7686535927021
 10
16.89986296068
 20
16.81151168539
 30
-0.8694765042331
 10
17.0577137026
 20
16.8177087455
 30
-0.9430356753972
 10
17.22642412404
 20
16.83234774089
 30
-0.989202517977
 10
17.40212021943
 20
16.85684308999
 30
-1.005263497931
 10
17.57504784947
 20
16.89050477863
 30
-0.9897372947223
 10
17.73784218428
 20
16.93094759441
 30
-0.9448980686889
 10
17.88990519561
 20
16.97643031315
 30
-0.8721635142303
 10
18.02958417127
 20
17.02490364037
 30
-0.7707385298123
 10
18.14839704627
 20
17.07120980037
 30
-0.6457653173168
 10
18.24267188158
 20
17.11119873277
 30
-0.5034110745064
 10
18.3125148936
 20
17.14266296764
 30
-0.3458985812536
 10
18.35609116004
 20
17.16309547705
 30
-0.1728794135518
 10
18.36529861711
 20
17.16749972743
 30
-0.058079949597
 10
18.36529861711
 20
17.16749972743
 30
0.0
  0
SPLINE
  5
7D
330
70
100
AcDbEntity
  8
Layer 01
100
AcDbSpline
210
0.0
220
0.0
230
1.0
 70
    24
 71
     2
 72
     6
 73
     3
 74
     0
 42
0.000000001
 43
0.0000000001
 40
0.0
 40
0.0
 40
0.0
 40
7.000000000006703
 40
7.000000000006703
 40
7.000000000006703
 10
18.36529861711
 20
17.16749972743
 30
0.0
 10
18.942776435445
 20
13.715468532705
 30
0.0
 10
19.52025425378
 20
10.26343733798
 30
0.0
  0
SPLINE
  5
7E
330
70
100
AcDbEntity
  8
Layer 01
100
AcDbSpline
 70
     0
 71
     3
 72
    25
 73
    21
 74
     0
 42
0.000000001
 43
0.0000000001
 40
0.0
 40
0.0
 40
0.0
 40
0.0
 40
0.1761242834616593
 40
0.3522485669232552
 40
0.5283728503850412
 40
0.7044971338465104
 40
0.8806214173082964
 40
1.056745700769766
 40
1.232869984231552
 40
1.408994267693021
 40
1.585118551154807
 40
1.761242834616593
 40
1.937367118078062
 40
2.113491401539848
 40
2.289615685001317
 40
2.465739968463103
 40
2.641864251924572
 40
2.817988535386359
 40
2.994112818847827
 40
3.170237102309613
 40
3.170237102309613
 40
3.170237102309613
 40
3.170237102309613
 10
18.36529861711
 20
17.16749972743
 30
0.0
 10
18.36529861711
 20
17.16749972743
 30
0.05810705750796
 10
18.35608569572
 20
17.16309210099
 30
0.1726984976052
 10
18.31286476202
 20
17.14283064871
 30
0.3444857329491
 10
18.24435670808
 20
17.1119404381
 30
0.5002777813865
 10
18.1497506851
 20
17.07175273671
 30
0.6442206973282
 10
18.03067589891
 20
17.02530946618
 30
0.7697484327074
 10
17.89204666058
 20
16.97714934597
 30
0.870766713419
 10
17.74144992313
 20
16.93194119745
 30
0.9435399059763
 10
17.57762527156
 20
16.89104701075
 30
0.98937516056
 10
17.40366189102
 20
16.85710059431
 30
1.005264518566
 10
17.22903683769
 20
16.83267367105
 30
0.9895660682553
 10
17.06174238078
 20
16.81797307804
 30
0.9444561622609
 10
16.90352967441
 20
16.81156862409
 30
0.8715964417011
 10
16.75736443932
 20
16.81195032528
 30
0.7712060452641
 10
16.63137240477
 20
16.81694025613
 30
0.6482363027466
 10
16.52835113881
 20
16.82406494863
 30
0.5059558435608
 10
16.45053156612
 20
16.83121997061
 30
0.345878162371
 10
16.40262031291
 20
16.83637132459
 30
0.1716216830461
 10
16.39270936298
 20
16.83751240266
 30
0.05744936904103
 10
16.39270936298
 20
16.83751240266
 30
0.0
  0
SPLINE
  5
7F
330
70
100
AcDbEntity
  8
Layer 01
100
AcDbSpline
 70
     0
 71
     3
 72
    25
 73
    21
 74
     0
 42
0.000000001
 43
0.0000000001
 40
0.0
 40
0.0
 40
0.0
 40
0.0
 40
0.1761243085584413
 40
0.3522486171168192
 40
0.5283729256753873
 40
0.7044972342336384
 40
0.8806215427922066
 40
1.056745851350458
 40
1.232870159909026
 40
1.408994468467277
 40
1.585118777025845
 40
1.761243085584413
 40
1.937367394142664
 40
2.113491702701233
 40
2.289616011259484
 40
2.465740319818051
 40
2.641864628376303
 40
2.817988936934871
 40
2.994113245493122
 40
3.17023755405169
 40
3.17023755405169
 40
3.17023755405169
 40
3.17023755405169
 10
17.54766499965
 20
9.933450013221
 30
0.0
 10
17.54766499965
 20
9.933450013221
 30
0.05745734794294
 10
17.55666496569
 20
9.937754712456
 30
0.1716515916734
 10
17.60033163393
 20
9.958237776454
 30
0.346008701524
 10
17.67162372573
 20
9.990346768999
 30
0.5061033703533
 10
17.76677408453
 20
10.03063397729
 30
0.6484087486571
 10
17.88433029138
 20
10.07637169129
 30
0.7713733871332
 10
18.02252451813
 20
10.12433105015
 30
0.8717736549768
 10
18.17420207277
 20
10.16975251595
 30
0.9445672434694
 10
18.33730767718
 20
10.21031605376
 30
0.9896480400734
 10
18.51042113662
 20
10.24403815895
 30
1.005270461232
 10
18.6860610581
 20
10.26854158308
 30
0.9892673034457
 10
18.85410522708
 20
10.28315563867
 30
0.9433981521036
 10
19.01144100719
 20
10.28941048045
 30
0.8704213052268
 10
19.15810757961
 20
10.28896516935
 30
0.7693096369498
 10
19.28578729591
 20
10.28378913925
 30
0.6436169838062
 10
19.3881364835
 20
10.27658252078
 30
0.4997510168682
 10
19.46297029768
 20
10.26966519088
 30
0.3436051679955
 10
19.51013128751
 20
10.26460323463
 30
0.1723658556669
 10
19.52025425378
 20
10.26343733798
 30
0.05798080874282
 10
19.52025425378
 20
10.26343733798
 30
0.0
  0
ARC
  5
80
330
70
100
AcDbEntity
  8
Layer 01
100
AcDbCircle
 10
-10.40205486171155
 20
0.0
 30
-21.80978452096771
 40
3.500000000003352
210
-0.9862946270633413
220
-0.16499366238127
230
0.0
100
AcDbArc
 50
0.000000000000007
 51
180.0
  0
ARC
  5
81
330
70
100
AcDbEntity
  8
Layer 01
100
AcDbCircle
 10
10.40205486170515
 20
0.0
 30
16.60978452096851
 40
3.499999999999407
210
0.9862946270633099
220
0.1649936623814567
230
-1.486523230695204E-20
100
AcDbArc
 50
0.000000000000007
 51
180.0
  0
ARC
  5
82
330
70
100
AcDbEntity
  8
Layer 01
100
AcDbCircle
 10
10.40205486170469
 20
0.0
 30
22.6097845209748
 40
2.699999999999086
210
0.9862946270632966
220
0.1649936623815373
230
2.758008134972518E-22
100
AcDbArc
 50
0.000000000000007
 51
180.0
  0
LINE
  5
83
330
70
100
AcDbEntity
  8
Layer 01
100
AcDbLine
 10
20.13815297574009
 20
16.65295746736001
 30
0.0
 11
21.0291187525999
 21
11.32696648121998
 31
0.0
  0
LINE
  5
84
330
70
100
AcDbEntity
  8
Layer 01
100
AcDbLine
 10
20.58363586417
 20
13.98996197429
 30
2.699999999999086
 11
20.58363586417
 21
13.98996197429
 31
-2.699999999999086
  0
LINE
  5
85
330
70
100
AcDbEntity
  8
Layer 01
100
AcDbLine
 10
20.58363586416578
 20
13.98996197428933
 30
-2.699999999994812
 11
19.79460016251093
 21
13.85796704438343
 31
-3.499999999999076
  0
ARC
  5
86
330
70
100
AcDbEntity
  8
Layer 01
100
AcDbCircle
 10
10.40205486170763
 20
0.0
 30
19.20978452096988
 40
3.499999999999996
210
0.9862946270633028
220
0.1649936623814994
230
0.0
100
AcDbArc
 50
191.1547156837856
 51
348.8456925777147
  0
LINE
  5
87
330
70
100
AcDbEntity
  8
Layer 01
100
AcDbLine
 10
14.66586810178447
 20
13.00000000000215
 30
-3.499999999999998
 11
19.79460016251481
 21
13.85796704438614
 31
-3.499999999999995
  0
ARC
  5
88
330
70
100
AcDbEntity
  8
Layer 01
100
AcDbCircle
 10
-19.94612400442956
 20
0.0
 30
10.40205486170693
 40
0.9999999999999911
210
-0.1649936623815015
220
0.9862946270633026
230
0.0
100
AcDbArc
 50
180.0
 51
359.9999999999999
  0
LINE
  5
89
330
70
100
AcDbEntity
  8
Layer 01
100
AcDbLine
 10
18.5098873770375
 20
10.24234211495447
 30
-0.9999999999999949
 11
17.40307623904166
 21
16.85860762977774
 31
-0.9999999999999873
  0
ARC
  5
8A
330
70
100
AcDbEntity
  8
Layer 01
100
AcDbCircle
 10
-19.94612400442956
 20
0.0
 30
10.40205486170693
 40
0.9999999999999911
210
-0.1649936623815015
220
0.9862946270633026
230
0.0
100
AcDbArc
 50
0.0000000000000046
 51
180.0
  0
LINE
  5
8B
330
70
100
AcDbEntity
  8
Layer 01
100
AcDbLine
 10
17.54766499965305
 20
9.93345001322151
 30
-0.0000000000000005
 11
16.39270936298324
 21
16.83751240266054
 31
-0.0000000000000031
  0
LINE
  5
8C
330
70
100
AcDbEntity
  8
Layer 01
100
AcDbLine
 10
18.50988737384127
 20
10.2423421340608
 30
0.9999999999999949
 11
17.40307624177209
 21
16.85860761345579
 31
0.9999999999999873
  0
ARC
  5
8D
330
70
100
AcDbEntity
  8
Layer 01
100
AcDbCircle
 10
10.40205486170762
 20
0.0000000000000018
 30
19.20978452096988
 40
3.499999999999997
210
0.9862946270633028
220
0.1649936623814994
230
0.0
100
AcDbArc
 50
11.15555635432971
 51
168.8443360164277
  0
LINE
  5
8E
330
70
100
AcDbEntity
  8
Layer 01
100
AcDbLine
 10
14.66586810178447
 20
13.00000000000215
 30
3.5
 11
19.79460016251481
 21
13.85796704438613
 31
3.499999999999997
  0
LINE
  5
8F
330
70
100
AcDbEntity
  8
Layer 01
100
AcDbLine
 10
20.58363586416578
 20
13.98996197428933
 30
2.699999999994814
 11
19.79460016251093
 21
13.85796704438343
 31
3.499999999999077
  0
LINE
  5
90
330
70
100
AcDbEntity
  8
Layer 01
100
AcDbLine
 10
14.08839028345487
 20
16.45203119472081
 30
0.0
 11
15.24334592012518
 21
9.547968805278867
 31
0.0
  0
LINE
  5
91
330
70
100
AcDbEntity
  8
Layer 01
100
AcDbLine
 10
14.66586810179003
 20
12.99999999999984
 30
3.499999999999407
 11
14.66586810179003
 21
12.99999999999984
 31
-3.499999999999407
  0
ARC
  5
92
330
70
100
AcDbEntity
  8
Layer 01
100
AcDbCircle
 10
-173.2450089447621
 20
-259.4288873998969
 30
-485.6388011034021
 40
3.500000000001893
210
-0.4931473135319186
220
0.1649936623788406
230
-0.8541562026532785
100
AcDbArc
 50
344.0512605644111
 51
164.051260565827
  0
SPLINE
  5
93
330
70
100
AcDbEntity
  8
Layer 01
100
AcDbSpline
210
0.0
220
0.0
230
1.0
 70
    24
 71
     2
 72
     6
 73
     3
 74
     0
 42
0.000000001
 43
0.0000000001
 40
-1.131370849933053
 40
-1.131370849933053
 40
-1.131370849933053
 40
0.0
 40
0.0
 40
0.0
 10
503.9854406237
 20
11.32696648122
 30
278.8349624391
 10
504.14970081665
 20
10.86645116544
 30
279.11946943895
 10
504.3139610096
 20
10.40593584966
 30
279.4039764388
  0
ARC
  5
94
330
70
100
AcDbEntity
  8
Layer 01
100
AcDbCircle
 10
-173.2450089498716
 20
-259.4288873975892
 30
-484.8388011028115
 40
2.700000000000489
210
-0.4931473135314386
220
0.1649936623845797
230
-0.854156202652447
100
AcDbArc
 50
344.0512605649006
 51
164.0512605638367
  0
SPLINE
  5
95
330
70
100
AcDbEntity
  8
Layer 01
100
AcDbSpline
210
0.0
220
0.0
230
1.0
 70
    24
 71
     2
 72
     6
 73
     3
 74
     0
 42
0.000000001
 43
0.0000000001
 40
-1.131370849916477
 40
-1.131370849916477
 40
-1.131370849916477
 40
0.0
 40
0.0
 40
0.0
 10
504.8914388279
 20
17.30999823911
 30
280.4041973604001
 10
504.66118117
 20
16.981477853235
 30
280.0053793981
 10
504.4309235121
 20
16.65295746736
 30
279.6065614358
  0
SPLINE
  5
96
330
70
100
AcDbEntity
  8
Layer 01
100
AcDbSpline
210
0.0
220
0.0
230
1.0
 70
    24
 71
     2
 72
     6
 73
     3
 74
     0
 42
0.000000001
 43
0.0000000001
 40
-0.8636605165323573
 40
-0.8636605165323573
 40
-0.8636605165323573
 40
0.0
 40
0.0
 40
0.0
 10
504.3139610096
 20
10.40593584966
 30
279.4039764388
 10
504.52691694135
 20
10.33468659382
 30
279.7728269324
 10
504.7398728731
 20
10.26343733798
 30
280.141677426
  0
SPLINE
  5
97
330
70
100
AcDbEntity
  8
Layer 01
100
AcDbSpline
210
0.0
220
0.0
230
1.0
 70
    24
 71
     2
 72
     6
 73
     3
 74
     0
 42
0.000000001
 43
0.0000000001
 40
-0.8636605165323091
 40
-0.8636605165323091
 40
-0.8636605165323091
 40
0.0
 40
0.0
 40
0.0
 10
505.3173506914
 20
17.16749972743
 30
281.1418983476
 10
505.10439475965
 20
17.23874898327
 30
280.773047854
 10
504.8914388279
 20
17.30999823911
 30
280.4041973604001
  0
SPLINE
  5
98
330
70
100
AcDbEntity
  8
Layer 01
100
AcDbSpline
210
0.0
220
0.0
230
1.0
 70
    24
 71
     2
 72
     6
 73
     3
 74
     0
 42
0.000000001
 43
0.0000000001
 40
-2.336339483475972
 40
-2.336339483475972
 40
-2.336339483475972
 40
0.0
 40
0.0
 40
0.0
 10
507.4558048583
 20
16.45203119472
 30
284.8458096142
 10
506.8797250884
 20
16.64477179869
 30
283.84801018355
 10
506.3036453185
 20
16.83751240266
 30
282.8502107529
  0
ARC
  5
99
330
70
100
AcDbEntity
  8
Layer 01
100
AcDbCircle
 10
-173.2450089511181
 20
-259.4288873969797
 30
-490.838801102711
 40
3.500000000002087
210
-0.493147313531323
220
0.1649936623859603
230
-0.8541562026522472
100
AcDbArc
 50
344.0512605651755
 51
164.0512605651747
  0
SPLINE
  5
9A
330
70
100
AcDbEntity
  8
Layer 01
100
AcDbSpline
210
0.0
220
0.0
230
1.0
 70
    24
 71
     2
 72
     6
 73
     3
 74
     0
 42
0.000000001
 43
0.0000000001
 40
-2.336339483427206
 40
-2.336339483427206
 40
-2.336339483427206
 40
0.0
 40
0.0
 40
0.0
 10
505.7261675002
 20
9.933450013221
 30
281.8499898313
 10
506.30224727005
 20
9.7407094092495
 30
282.84778926195
 10
506.8783270398999
 20
9.547968805278
 30
283.8455886926
  0
SPLINE
  5
9B
330
70
100
AcDbEntity
  8
Layer 01
100
AcDbSpline
 70
     0
 71
     3
 72
    25
 73
    21
 74
     0
 42
0.000000001
 43
0.0000000001
 40
0.0
 40
0.0
 40
0.0
 40
0.0
 40
0.1761238970848915
 40
0.3522477941697195
 40
0.5283716912547378
 40
0.704495588339439
 40
0.8806194854244573
 40
1.056743382509159
 40
1.232867279594177
 40
1.408991176678878
 40
1.585115073763896
 40
1.761238970848915
 40
1.937362867933616
 40
2.113486765018634
 40
2.289610662103335
 40
2.465734559188354
 40
2.641858456273055
 40
2.817982353358073
 40
2.994106250442774
 40
3.170230147527793
 40
3.170230147527793
 40
3.170230147527793
 40
3.170230147527793
 10
504.7398728731
 20
10.26343733798
 30
280.141677426
 10
504.6895819006
 20
10.26343733798
 30
280.1707129325
 10
504.5952532427
 20
10.26460498066
 30
280.2368812908
 10
504.4694105617
 20
10.26973763514
 30
280.3647390114
 10
504.3711356462
 20
10.27675434923
 30
280.5095052332
 10
504.2989165284
 20
10.28388248772
 30
280.6691048823
 10
504.2543730249
 20
10.28899993344
 30
280.8418491039
 10
504.2404017347
 20
10.28938635575
 30
281.0205112387
 10
504.2566519099
 20
10.28291460804
 30
281.1942741589
 10
504.3012640692
 20
10.26820475533
 30
281.361277574
 10
504.3749555946
 20
10.24378509449
 30
281.5201386321
 10
504.4757686305
 20
10.20981438559
 30
281.662871809
 10
504.5979225039
 20
10.16873680874
 30
281.7822215761
 10
504.7369975772
 20
10.12330008982
 30
281.8764010698
 10
504.8930859963
 20
10.07541119922
 30
281.9452189204
 10
505.0585668398
 20
10.0297251518
 30
281.9849981138
 10
505.229551238
 20
9.989598876371
 30
281.9955265924
 10
505.401015043
 20
9.958168367243
 30
281.9770596494
 10
505.5723219826
 20
9.93782426279
 30
281.9282535985
 10
505.6760450829
 20
9.933450013221
 30
281.8789280224
 10
505.7261675002
 20
9.933450013221
 30
281.8499898313
  0
SPLINE
  5
9C
330
70
100
AcDbEntity
  8
Layer 01
100
AcDbSpline
210
0.0
220
0.0
230
1.0
 70
    24
 71
     2
 72
     6
 73
     3
 74
     0
 42
0.000000001
 43
0.0000000001
 40
0.0
 40
0.0
 40
0.0
 40
6.999999999992936
 40
6.999999999992936
 40
6.999999999992936
 10
505.7261675002
 20
9.933450013221
 30
281.8499898313
 10
506.01490640935
 20
13.3854812079405
 30
282.3501002921
 10
506.3036453185
 20
16.83751240266
 30
282.8502107529
  0
SPLINE
  5
9D
330
70
100
AcDbEntity
  8
Layer 01
100
AcDbSpline
 70
     0
 71
     3
 72
    25
 73
    21
 74
     0
 42
0.000000001
 43
0.0000000001
 40
0.0
 40
0.0
 40
0.0
 40
0.0
 40
0.1761239549139097
 40
0.3522479098277559
 40
0.5283718647417924
 40
0.7044958196555119
 40
0.8806197745695484
 40
1.056743729483268
 40
1.232867684397304
 40
1.408991639311024
 40
1.58511559422506
 40
1.761239549139097
 40
1.937363504052816
 40
2.113487458966853
 40
2.289611413880572
 40
2.465735368794609
 40
2.641859323708328
 40
2.817983278622365
 40
2.994107233536084
 40
3.170231188450121
 40
3.170231188450121
 40
3.170231188450121
 40
3.170231188450121
 10
506.3036453185
 20
16.83751240266
 30
282.8502107529
 10
506.2536641138
 20
16.83751240266
 30
282.8790674148
 10
506.1497235316
 20
16.8363574918
 30
282.9274937969
 10
505.9768924885
 20
16.83127195817
 30
282.9726204519
 10
505.8019387772
 20
16.8242462088
 30
282.9857030908
 10
505.6271411159
 20
16.81709727717
 30
282.9684688623
 10
505.4571927342
 20
16.8120209232
 30
282.9214190561
 10
505.297079779
 20
16.81151168539
 30
282.8457411058
 10
505.1544502971
 20
16.8177087455
 30
282.7458179388
 10
505.0301134279
 20
16.83234774089
 30
282.6227938493
 10
504.9283561636
 20
16.85684308999
 30
282.4786670573
 10
504.855338435
 20
16.89050477863
 30
282.3211442351
 10
504.8127731764
 20
16.93094759441
 30
282.1577405925
 10
504.7997316426
 20
16.97643031315
 30
281.9896828845
 10
504.8177287679
 20
17.02490364037
 30
281.818004851
 10
504.8665523072
 20
17.07120980037
 30
281.6526232767
 10
504.9426972801
 20
17.11119873277
 30
281.499801753
 10
505.0441855947
 20
17.14266296764
 30
281.3605596836
 10
505.1722364561
 20
17.16309547705
 30
281.2363119461
 10
505.2670519796
 20
17.16749972743
 30
281.1709383224
 10
505.3173506914
 20
17.16749972743
 30
281.1418983476
  0
SPLINE
  5
9E
330
70
100
AcDbEntity
  8
Layer 01
100
AcDbSpline
210
0.0
220
0.0
230
1.0
 70
    24
 71
     2
 72
     6
 73
     3
 74
     0
 42
0.000000001
 43
0.0000000001
 40
0.0
 40
0.0
 40
0.0
 40
7.000000000003776
 40
7.000000000003776
 40
7.000000000003776
 10
505.3173506914
 20
17.16749972743
 30
281.1418983476
 10
505.02861178225
 20
13.715468532705
 30
280.6417878868
 10
504.7398728731
 20
10.26343733798
 30
280.141677426
  0
SPLINE
  5
9F
330
70
100
AcDbEntity
  8
Layer 01
100
AcDbSpline
 70
     0
 71
     3
 72
    25
 73
    21
 74
     0
 42
0.000000001
 43
0.0000000001
 40
0.0
 40
0.0
 40
0.0
 40
0.0
 40
0.1761242834679035
 40
0.3522485669357436
 40
0.5283728504037739
 40
0.7044971338714873
 40
0.8806214173395176
 40
1.056745700807231
 40
1.232869984275261
 40
1.408994267742975
 40
1.585118551211005
 40
1.761242834679035
 40
1.937367118146748
 40
2.113491401614779
 40
2.289615685082492
 40
2.465739968550523
 40
2.641864252018236
 40
2.817988535486266
 40
2.99411281895398
 40
3.17023710242201
 40
3.17023710242201
 40
3.17023710242201
 40
3.17023710242201
 10
505.3173506914
 20
17.16749972743
 30
281.1418983476
 10
505.3676728795
 20
17.16749972743
 30
281.1128448187
 10
505.4715184387
 20
17.16309210097
 30
281.0635277226
 10
505.6419010158
 20
17.14283064858
 30
281.0150645314
 10
505.8110749148
 20
17.11194043785
 30
280.9964982224
 10
505.9830361487
 20
17.07175273628
 30
281.006457984
 10
506.1512837498
 20
17.02530946559
 30
281.0468159065
 10
506.3080827665
 20
16.97714934526
 30
281.1163632088
 10
506.4464045687
 20
16.93194119671
 30
281.2103972135
 10
506.5680113894
 20
16.89104700999
 30
281.329355897
 10
506.6687536671
 20
16.85710059365
 30
281.4720679257
 10
506.7424709365
 20
16.83267367056
 30
281.6311468838
 10
506.7870518397
 20
16.81797307776
 30
281.7985830869
 10
506.8030598232
 20
16.811568624
 30
281.9720291708
 10
506.7892018062
 20
16.81195032537
 30
282.1488071761
 10
506.7457029015
 20
16.81694025635
 30
282.3194043501
 10
506.6739950412
 20
16.82406494891
 30
282.479763613
 10
506.5742734874
 20
16.83121997089
 30
282.6271961808
 10
506.4473185755
 20
16.83637132471
 30
282.7558167813
 10
506.3533979291
 20
16.83751240266
 30
282.8214860697
 10
506.3036453185
 20
16.83751240266
 30
282.8502107529
  0
SPLINE
  5
A0
330
70
100
AcDbEntity
  8
Layer 01
100
AcDbSpline
 70
     0
 71
     3
 72
    25
 73
    21
 74
     0
 42
0.000000001
 43
0.0000000001
 40
0.0
 40
0.0
 40
0.0
 40
0.0
 40
0.1761243085589333
 40
0.3522486171178033
 40
0.5283729256768633
 40
0.7044972342356065
 40
0.8806215427946665
 40
1.05674585135341
 40
1.23287015991247
 40
1.408994468471213
 40
1.585118777030273
 40
1.761243085589333
 40
1.937367394148076
 40
2.113491702707137
 40
2.289616011265879
 40
2.46574031982494
 40
2.641864628383682
 40
2.817988936942743
 40
2.994113245501486
 40
3.170237554060546
 40
3.170237554060546
 40
3.170237554060546
 40
3.170237554060546
 10
505.7261675002
 20
9.933450013221
 30
281.8499898313
 10
505.7759270231
 20
9.933450013221
 30
281.8212611573
 10
505.8703221561
 20
9.937754712456
 30
281.7563698362
 10
505.9994865085
 20
9.958237776454
 30
281.6313748373
 10
506.1024865128
 20
9.990346768999
 30
281.4895867403
 10
506.1781514061
 20
10.03063397729
 30
281.3360314232
 10
506.2258638034
 20
10.07637169129
 30
281.1727424425
 10
506.2437158725
 20
10.12433105015
 30
281.0028625975
 10
506.230918192
 20
10.16975251595
 30
280.8351091878
 10
506.1884065049
 20
10.21031605376
 30
280.6713151926
 10
506.1153791888
 20
10.24403815895
 30
280.5135833284
 10
506.0137000869
 20
10.26854158308
 30
280.3694762734
 10
505.8899541521
 20
10.28315563867
 30
280.2468803297
 10
505.7480864587
 20
10.28941048045
 30
280.1471119707
 10
505.5871878992
 20
10.28896516935
 30
280.0706508272
 10
505.4144950103
 20
10.28378913925
 30
280.0229232759
 10
505.2387288344
 20
10.27658252078
 30
280.0062192629
 10
505.0660856555
 20
10.26966519088
 30
280.0194842032
 10
504.894207566
 20
10.26460323463
 30
280.0642612441
 10
504.7900857264
 20
10.26343733798
 30
280.1126870216
 10
504.7398728731
 20
10.26343733798
 30
280.141677426
  0
ARC
  5
A1
330
70
100
AcDbEntity
  8
Layer 01
100
AcDbCircle
 10
173.2450089447247
 20
-259.4288873999143
 30
485.6388011034059
 40
3.50000000000189
210
0.4931473135319221
220
-0.1649936623787985
230
0.8541562026532847
100
AcDbArc
 50
195.948739435584
 51
15.94873943416916
  0
ARC
  5
A2
330
70
100
AcDbEntity
  8
Layer 01
100
AcDbCircle
 10
-173.2450089511087
 20
-259.428887396984
 30
-490.8388011027121
 40
3.500000000002085
210
-0.493147313531324
220
0.1649936623859497
230
-0.8541562026522487
100
AcDbArc
 50
164.0512605651746
 51
344.0512605651767
  0
ARC
  5
A3
330
70
100
AcDbEntity
  8
Layer 01
100
AcDbCircle
 10
-173.2450089498515
 20
-259.4288873975988
 30
-484.8388011028137
 40
2.700000000000472
210
-0.4931473135314403
220
0.1649936623845568
230
-0.8541562026524505
100
AcDbArc
 50
164.0512605638365
 51
344.0512605649056
  0
LINE
  5
A4
330
70
100
AcDbEntity
  8
Layer 01
100
AcDbLine
 10
504.4309235121187
 20
16.65295746736845
 30
279.606561435731
 11
503.9854406236886
 21
11.32696648122565
 31
278.8349624390675
  0
LINE
  5
A5
330
70
100
AcDbEntity
  8
Layer 01
100
AcDbLine
 10
506.5464506581208
 20
13.98996197431807
 30
277.8707619374037
 11
501.869913477684
 21
13.98996197431796
 31
280.5707619374044
  0
LINE
  5
A6
330
70
100
AcDbEntity
  8
Layer 01
100
AcDbLine
 10
501.8699134776831
 20
13.98996197428905
 30
280.5707619374547
 11
501.571611005474
 21
13.85796704438075
 31
281.6540868996022
  0
LINE
  5
A7
330
70
100
AcDbEntity
  8
Layer 01
100
AcDbLine
 10
503.985440623681
 20
11.32696648122717
 30
278.8349624391225
 11
504.3139610095639
 21
10.40593584964314
 31
279.4039764387935
  0
ARC
  5
A8
330
70
100
AcDbEntity
  8
Layer 01
100
AcDbCircle
 10
-173.2450089471946
 20
-259.4288873988412
 30
-488.2388011031424
 40
3.500000000000007
210
-0.4931473135317009
220
0.164993662381555
230
-0.8541562026528799
100
AcDbArc
 50
355.2059762490074
 51
152.8969531423928
  0
LINE
  5
A9
330
70
100
AcDbEntity
  8
Layer 01
100
AcDbLine
 10
504.1359770358935
 20
13.00000000000419
 30
286.0956991533787
 11
501.5716110055301
 21
13.85796704438818
 31
281.6540868995862
  0
ARC
  5
AA
330
70
100
AcDbEntity
  8
Layer 01
100
AcDbCircle
 10
-502.6331617338369
 20
270.657172102811
 30
95.28037192610736
 40
1.000000000000097
210
0.08249683119072436
220
0.9862946270633042
230
0.1428887030858167
100
AcDbArc
 50
300.3435549032433
 51
120.3435549015911
  0
LINE
  5
AB
330
70
100
AcDbEntity
  8
Layer 01
100
AcDbLine
 10
504.3790309077065
 20
10.24234211494699
 30
281.5166808084019
 11
504.9324364767045
 21
16.85860762977472
 31
282.4752073710986
  0
LINE
  5
AC
330
70
100
AcDbEntity
  8
Layer 01
100
AcDbLine
 10
505.7261675001837
 20
9.933450013221238
 30
281.8499898313075
 11
506.065978304227
 21
13.99607357594968
 31
282.4385594088714
  0
ARC
  5
AD
330
70
100
AcDbEntity
  8
Layer 01
100
AcDbCircle
 10
-502.6331617338363
 20
270.6571721028109
 30
95.30221649340204
 40
1.000000000000146
210
0.08249683119072436
220
0.9862946270633042
230
0.1428887030858167
100
AcDbArc
 50
120.3435549014331
 51
300.3435549014346
  0
LINE
  5
AE
330
70
100
AcDbEntity
  8
Layer 01
100
AcDbLine
 10
506.1110817168731
 20
10.24234213405741
 30
280.5166808111704
 11
506.6644872829079
 21
16.85860761345587
 31
281.4752073687342
  0
ARC
  5
AF
330
70
100
AcDbEntity
  8
Layer 01
100
AcDbCircle
 10
-173.2450089471448
 20
-259.4288873988645
 30
-488.2388011031733
 40
3.500000000000007
210
-0.4931473135317055
220
0.1649936623814997
230
-0.8541562026528878
100
AcDbArc
 50
175.2068169167385
 51
332.895596582817
  0
LINE
  5
B0
330
70
100
AcDbEntity
  8
Layer 01
100
AcDbLine
 10
505.3173506914693
 20
17.16749972743317
 30
281.1418983475605
 11
504.891438827938
 21
17.30999823911013
 31
280.4041973603781
  0
LINE
  5
B1
330
70
100
AcDbEntity
  8
Layer 01
100
AcDbLine
 10
510.1981548623845
 20
13.00000000000392
 30
282.5956991533783
 11
507.633788832021
 21
13.85796704438744
 31
278.1540868995856
  0
LINE
  5
B2
330
70
100
AcDbEntity
  8
Layer 01
100
AcDbLine
 10
504.7398728731442
 20
10.263437337987
 30
280.1416774259758
 11
504.313961009613
 21
10.40593584966397
 31
279.4039764387933
  0
ARC
  5
B3
330
70
100
AcDbEntity
  8
Layer 01
100
AcDbCircle
 10
173.2450089471251
 20
-259.4288873988288
 30
485.6285749094466
 40
3.489773806326953
210
0.4931473135317013
220
-0.164993662381498
230
0.8541562026528908
100
AcDbArc
 50
195.9487394351057
 51
15.94873943488122
  0
LINE
  5
B4
330
70
100
AcDbEntity
  8
Layer 01
100
AcDbLine
 10
506.546450658112
 20
13.98996197428927
 30
277.8707619374586
 11
507.6337888319902
 21
13.85796704438102
 31
278.1540868995875
  0
LINE
  5
B5
330
70
100
AcDbEntity
  8
Layer 01
100
AcDbLine
 10
504.4309235121146
 20
16.65295746735953
 30
279.6065614357919
 11
504.8914388278999
 21
17.30999823911544
 31
280.4041973603955
  0
LINE
  5
B6
330
70
100
AcDbEntity
  8
Layer 01
100
AcDbLine
 10
507.4558048582677
 20
16.45203119472265
 30
284.8458096142004
 11
506.8783270399323
 21
9.5479688052754
 31
283.8455886925992
  0
LINE
  5
B7
330
70
100
AcDbEntity
  8
Layer 01
100
AcDbLine
 10
510.1981548623471
 20
12.99999999999901
 30
282.5956991533986
 11
504.1359770358526
 21
12.99999999999887
 31
286.095699153401
  0
ARC
  5
B8
330
70
100
AcDbEntity
  8
Layer 01
100
AcDbCircle
 10
-173.2450089447308
 20
259.4288873999116
 30
-485.6388011034053
 40
3.500000000001895
210
-0.4931473135319214
220
0.1649936623788054
230
0.8541562026532837
100
AcDbArc
 50
195.9487394341701
 51
15.94873943558502
  0
SPLINE
  5
B9
330
70
100
AcDbEntity
  8
Layer 01
100
AcDbSpline
210
0.0
220
0.0
230
1.0
 70
    24
 71
     2
 72
     6
 73
     3
 74
     0
 42
0.000000001
 43
0.0000000001
 40
-1.131370849916477
 40
-1.131370849916477
 40
-1.131370849916477
 40
0.0
 40
0.0
 40
0.0
 10
504.4309235121
 20
16.65295746736
 30
-279.6065614358
 10
504.66118117
 20
16.981477853235
 30
-280.0053793981
 10
504.8914388279001
 20
17.30999823911
 30
-280.4041973604001
  0
ARC
  5
BA
330
70
100
AcDbEntity
  8
Layer 01
100
AcDbCircle
 10
-173.2450089498638
 20
259.4288873975925
 30
-484.8388011028123
 40
2.700000000000476
210
-0.4931473135314394
220
0.1649936623845711
230
0.8541562026524484
100
AcDbArc
 50
195.9487394361582
 51
15.94873943510206
  0
SPLINE
  5
BB
330
70
100
AcDbEntity
  8
Layer 01
100
AcDbSpline
210
0.0
220
0.0
230
1.0
 70
    24
 71
     2
 72
     6
 73
     3
 74
     0
 42
0.000000001
 43
0.0000000001
 40
-1.131370849933053
 40
-1.131370849933053
 40
-1.131370849933053
 40
0.0
 40
0.0
 40
0.0
 10
504.3139610096
 20
10.40593584966
 30
-279.4039764388
 10
504.14970081665
 20
10.86645116544
 30
-279.11946943895
 10
503.9854406237
 20
11.32696648122
 30
-278.8349624391
  0
SPLINE
  5
BC
330
70
100
AcDbEntity
  8
Layer 01
100
AcDbSpline
210
0.0
220
0.0
230
1.0
 70
    24
 71
     2
 72
     6
 73
     3
 74
     0
 42
0.000000001
 43
0.0000000001
 40
-0.8636605165323091
 40
-0.8636605165323091
 40
-0.8636605165323091
 40
0.0
 40
0.0
 40
0.0
 10
504.8914388279001
 20
17.30999823911
 30
-280.4041973604001
 10
505.1043947596501
 20
17.23874898327
 30
-280.773047854
 10
505.3173506914
 20
17.16749972743
 30
-281.1418983476
  0
SPLINE
  5
BD
330
70
100
AcDbEntity
  8
Layer 01
100
AcDbSpline
210
0.0
220
0.0
230
1.0
 70
    24
 71
     2
 72
     6
 73
     3
 74
     0
 42
0.000000001
 43
0.0000000001
 40
-0.8636605165323573
 40
-0.8636605165323573
 40
-0.8636605165323573
 40
0.0
 40
0.0
 40
0.0
 10
504.7398728731
 20
10.26343733798
 30
-280.141677426
 10
504.52691694135
 20
10.33468659382
 30
-279.7728269324
 10
504.3139610096
 20
10.40593584966
 30
-279.4039764388
  0
SPLINE
  5
BE
330
70
100
AcDbEntity
  8
Layer 01
100
AcDbSpline
210
0.0
220
0.0
230
1.0
 70
    24
 71
     2
 72
     6
 73
     3
 74
     0
 42
0.000000001
 43
0.0000000001
 40
-2.336339483427206
 40
-2.336339483427206
 40
-2.336339483427206
 40
0.0
 40
0.0
 40
0.0
 10
506.8783270398999
 20
9.547968805278
 30
-283.8455886926
 10
506.30224727005
 20
9.7407094092495
 30
-282.84778926195
 10
505.7261675002
 20
9.933450013221
 30
-281.8499898313
  0
ARC
  5
BF
330
70
100
AcDbEntity
  8
Layer 01
100
AcDbCircle
 10
-173.2450089511148
 20
259.4288873969815
 30
-490.8388011027114
 40
3.500000000002077
210
-0.4931473135313232
220
0.1649936623859565
230
0.8541562026522478
100
AcDbArc
 50
195.9487394348272
 51
15.94873943482347
  0
SPLINE
  5
C0
330
70
100
AcDbEntity
  8
Layer 01
100
AcDbSpline
210
0.0
220
0.0
230
1.0
 70
    24
 71
     2
 72
     6
 73
     3
 74
     0
 42
0.000000001
 43
0.0000000001
 40
-2.336339483475972
 40
-2.336339483475972
 40
-2.336339483475972
 40
0.0
 40
0.0
 40
0.0
 10
506.3036453185
 20
16.83751240266
 30
-282.8502107529
 10
506.8797250884
 20
16.64477179869
 30
-283.84801018355
 10
507.4558048583
 20
16.45203119472
 30
-284.8458096142
  0
SPLINE
  5
C1
330
70
100
AcDbEntity
  8
Layer 01
100
AcDbSpline
 70
     0
 71
     3
 72
    25
 73
    21
 74
     0
 42
0.000000001
 43
0.0000000001
 40
0.0
 40
0.0
 40
0.0
 40
0.0
 40
0.1761242834567751
 40
0.3522485669134868
 40
0.5283728503703886
 40
0.7044971338269735
 40
0.8806214172838754
 40
1.05674570074046
 40
1.232869984197362
 40
1.408994267653947
 40
1.585118551110849
 40
1.761242834567751
 40
1.937367118024335
 40
2.113491401481238
 40
2.289615684937822
 40
2.465739968394725
 40
2.641864251851309
 40
2.817988535308211
 40
2.994112818764796
 40
3.170237102221698
 40
3.170237102221698
 40
3.170237102221698
 40
3.170237102221698
 10
505.3173506914
 20
17.16749972743
 30
-281.1418983476
 10
505.2670285034
 20
17.16749972743
 30
-281.1709518764
 10
505.1723958657
 20
17.16309210097
 30
-281.2362262206
 10
505.0452342224
 20
17.14283064858
 30
-281.3595502652
 10
504.9445683777
 20
17.11194043785
 30
-281.4967760049
 10
504.8672131673
 20
17.07175273628
 30
-281.6506786827
 10
504.8180403529
 20
17.02530946559
 30
-281.8165643406
 10
504.7998705751
 20
16.97714934526
 30
-281.9871299235
 10
504.8121455108
 20
16.93194119671
 30
-282.1539371205
 10
504.8543633424
 20
16.89104700999
 30
-282.3187310582
 10
504.9275844458
 20
16.85710059365
 30
-282.4773324442
 10
505.0284922301
 20
16.83267367056
 30
-282.6207129513
 10
505.1512057839
 20
16.81797307776
 30
-282.7430392476
 10
505.293410507
 20
16.811568624
 30
-282.8436256099
 10
505.4534337589
 20
16.81195032537
 30
-282.9200132178
 10
505.6229246978
 20
16.81694025635
 30
-282.9676406483
 10
505.7976538233
 20
16.82406494891
 30
-282.9857194511
 10
505.9751949492
 20
16.83121997089
 30
-282.9730743361
 10
506.1500611127
 20
16.83637132471
 30
-282.9274384574
 10
506.2538927079
 20
16.83751240266
 30
-282.878935436
 10
506.3036453185
 20
16.83751240266
 30
-282.8502107529
  0
SPLINE
  5
C2
330
70
100
AcDbEntity
  8
Layer 01
100
AcDbSpline
210
0.0
220
0.0
230
1.0
 70
    24
 71
     2
 72
     6
 73
     3
 74
     0
 42
0.000000001
 43
0.0000000001
 40
0.0
 40
0.0
 40
0.0
 40
6.999999999992936
 40
6.999999999992936
 40
6.999999999992936
 10
506.3036453185
 20
16.83751240266
 30
-282.8502107529
 10
506.01490640935
 20
13.3854812079405
 30
-282.3501002921
 10
505.7261675002
 20
9.933450013221
 30
-281.8499898313
  0
SPLINE
  5
C3
330
70
100
AcDbEntity
  8
Layer 01
100
AcDbSpline
 70
     0
 71
     3
 72
    25
 73
    21
 74
     0
 42
0.000000001
 43
0.0000000001
 40
0.0
 40
0.0
 40
0.0
 40
0.0
 40
0.1761243085564992
 40
0.352248617112935
 40
0.5283729256695611
 40
0.7044972342258701
 40
0.880621542782496
 40
1.056745851338805
 40
1.232870159895431
 40
1.40899446845174
 40
1.585118777008366
 40
1.761243085564992
 40
1.937367394121301
 40
2.113491702677927
 40
2.289616011234236
 40
2.465740319790862
 40
2.641864628347171
 40
2.817988936903797
 40
2.994113245460106
 40
3.170237554016732
 40
3.170237554016732
 40
3.170237554016732
 40
3.170237554016732
 10
505.7261675002
 20
9.933450013221
 30
-281.8499898313
 10
505.6764079772
 20
9.933450013221
 30
-281.8787185052
 10
505.5730128782
 20
9.937754712456
 30
-281.9280214279
 10
505.4001818576
 20
9.958237776454
 30
-281.9773835388
 10
505.2258897615
 20
9.990346768999
 30
-281.9956901106
 10
505.0550745094
 20
10.03063397729
 30
-281.9844401719
 10
504.8898059052
 20
10.07637169129
 30
-281.9441158296
 10
504.7337596094
 20
10.12433105015
 30
-281.8746362525
 10
504.5948797352
 20
10.16975251595
 30
-281.7796764313
 10
504.4742858179
 20
10.21031605376
 30
-281.6609632327
 10
504.3741996746
 20
10.24403815895
 30
-281.5188537896
 10
504.300238855
 20
10.26854158308
 30
-281.3587435768
 10
504.2559406209
 20
10.28315563867
 30
-281.1902784818
 10
504.2404725341
 20
10.28941048045
 30
-281.0175332759
 10
504.2547045212
 20
10.28896516935
 30
-280.8399604642
 10
504.2997176938
 20
10.28378913925
 30
-280.6665402597
 10
504.3731346821
 20
10.27658252078
 30
-280.5059702797
 10
504.4709440468
 20
10.26966519088
 30
-280.3630893712
 10
504.5956611465
 20
10.26460323463
 30
-280.2366270997
 10
504.6896600198
 20
10.26343733798
 30
-280.1706678303
 10
504.7398728731
 20
10.26343733798
 30
-280.141677426
  0
SPLINE
  5
C4
330
70
100
AcDbEntity
  8
Layer 01
100
AcDbSpline
210
0.0
220
0.0
230
1.0
 70
    24
 71
     2
 72
     6
 73
     3
 74
     0
 42
0.000000001
 43
0.0000000001
 40
0.0
 40
0.0
 40
0.0
 40
7.000000000003776
 40
7.000000000003776
 40
7.000000000003776
 10
504.7398728731
 20
10.26343733798
 30
-280.141677426
 10
505.02861178225
 20
13.715468532705
 30
-280.6417878868
 10
505.3173506914
 20
17.16749972743
 30
-281.1418983476
  0
SPLINE
  5
C5
330
70
100
AcDbEntity
  8
Layer 01
100
AcDbSpline
 70
     0
 71
     3
 72
    25
 73
    21
 74
     0
 42
0.000000001
 43
0.0000000001
 40
0.0
 40
0.0
 40
0.0
 40
0.0
 40
0.1761238970890402
 40
0.3522477941780171
 40
0.5283716912671841
 40
0.7044955883560342
 40
0.8806194854452012
 40
1.056743382534051
 40
1.232867279623218
 40
1.408991176712068
 40
1.585115073801235
 40
1.761238970890402
 40
1.937362867979252
 40
2.11348676506842
 40
2.28961066215727
 40
2.465734559246437
 40
2.641858456335286
 40
2.817982353424454
 40
2.994106250513304
 40
3.170230147602471
 40
3.170230147602471
 40
3.170230147602471
 40
3.170230147602471
 10
504.7398728731
 20
10.26343733798
 30
-280.141677426
 10
504.7901638456
 20
10.26343733798
 30
-280.1126419195
 10
504.8946316538
 20
10.26460498066
 30
-280.0640350846
 10
505.0682810284
 20
10.26973763514
 30
-280.0189809862
 10
505.2427897118
 20
10.27675434923
 30
-280.0062555237
 10
505.4171166214
 20
10.28388248772
 30
-280.0235117576
 10
505.5889892574
 20
10.28899993344
 30
-280.0713080629
 10
505.7507008499
 20
10.28938635575
 30
-280.148539638
 10
505.8930588654
 20
10.28291460804
 30
-280.2494941627
 10
506.0153819857
 20
10.26820475533
 30
-280.3716311335
 10
506.116113935
 20
10.24378509449
 30
-280.5148803955
 10
506.1893179742
 20
10.20981438559
 30
-280.6735536341
 10
506.2316009678
 20
10.16873680874
 30
-280.8390168753
 10
506.2436252652
 20
10.12330008982
 30
-281.0065491686
 10
506.2251790625
 20
10.07541119922
 30
-281.17613463
 10
506.1768884328
 20
10.0297251518
 30
-281.3393348411
 10
506.1005141636
 20
9.989598876371
 30
-281.4926759129
 10
505.9987894193
 20
9.958168367243
 30
-281.6319344523
 10
505.8708686696
 20
9.93782426279
 30
-281.7558875884
 10
505.7762899174
 20
9.933450013221
 30
-281.8210516402
 10
505.7261675002
 20
9.933450013221
 30
-281.8499898313
  0
SPLINE
  5
C6
330
70
100
AcDbEntity
  8
Layer 01
100
AcDbSpline
 70
     0
 71
     3
 72
    25
 73
    21
 74
     0
 42
0.000000001
 43
0.0000000001
 40
0.0
 40
0.0
 40
0.0
 40
0.0
 40
0.1761239549214468
 40
0.3522479098428302
 40
0.5283718647644038
 40
0.7044958196856603
 40
0.880619774607234
 40
1.05674372952849
 40
1.232867684450064
 40
1.408991639371321
 40
1.585115594292894
 40
1.761239549214468
 40
1.937363504135724
 40
2.113487459057298
 40
2.289611413978554
 40
2.465735368900128
 40
2.641859323821385
 40
2.817983278742958
 40
2.994107233664215
 40
3.170231188585789
 40
3.170231188585789
 40
3.170231188585789
 40
3.170231188585789
 10
506.3036453185
 20
16.83751240266
 30
-282.8502107529
 10
506.3536265232
 20
16.83751240266
 30
-282.8213540909
 10
506.4475352913
 20
16.8363574918
 30
-282.7555520972
 10
506.5730316425
 20
16.83127195817
 30
-282.6284393509
 10
506.6718383958
 20
16.8242462088
 30
-282.4834663118
 10
506.7443119468
 20
16.81709727717
 30
-282.3234699823
 10
506.7885398102
 20
16.8120209232
 30
-282.1527654634
 10
506.8030572603
 20
16.81151168539
 30
-281.9762646015
 10
506.7878360003
 20
16.8177087455
 30
-281.8027822634
 10
506.743462448
 20
16.83234774089
 30
-281.6335913313
 10
506.669523617
 20
16.85684308999
 30
-281.4734035594
 10
506.5696137156
 20
16.89050477863
 30
-281.3314069403
 10
506.4493846393
 20
16.93094759441
 30
-281.2128425238
 10
506.3103631618
 20
16.97643031315
 30
-281.1175193703
 10
506.1526870609
 20
17.02490364037
 30
-281.0472663212
 10
505.9850506465
 20
17.07120980037
 30
-281.0068579594
 10
505.8146308383
 20
17.11119873277
 30
-280.9963906785
 10
505.6432995117
 20
17.14266296764
 30
-281.0146611024
 10
505.4716723839
 20
17.16309547705
 30
-281.0634325325
 10
505.3676494032
 20
17.16749972743
 30
-281.1128583728
 10
505.3173506914
 20
17.16749972743
 30
-281.1418983476
  0
ARC
  5
C7
330
70
100
AcDbEntity
  8
Layer 01
100
AcDbCircle
 10
173.2450089447464
 20
259.4288873999041
 30
485.6388011034035
 40
3.500000000001891
210
0.4931473135319202
220
-0.164993662378823
230
-0.8541562026532811
100
AcDbArc
 50
344.0512605658316
 51
164.0512605644104
  0
ARC
  5
C8
330
70
100
AcDbEntity
  8
Layer 01
100
AcDbCircle
 10
-173.2450089511087
 20
259.4288873969842
 30
-490.8388011027121
 40
3.500000000002079
210
-0.4931473135313238
220
0.1649936623859497
230
0.8541562026522487
100
AcDbArc
 50
15.94873943482155
 51
195.9487394348263
  0
ARC
  5
C9
330
70
100
AcDbEntity
  8
Layer 01
100
AcDbCircle
 10
-173.2450089498593
 20
259.428887397595
 30
-484.838801102813
 40
2.700000000000462
210
-0.4931473135314399
220
0.1649936623845658
230
0.8541562026524491
100
AcDbArc
 50
15.94873943509941
 51
195.9487394361622
  0
LINE
  5
CA
330
70
100
AcDbEntity
  8
Layer 01
100
AcDbLine
 10
504.4309235121187
 20
16.65295746736844
 30
-279.606561435731
 11
503.9854406236887
 21
11.32696648122565
 31
-278.8349624390676
  0
LINE
  5
CB
330
70
100
AcDbEntity
  8
Layer 01
100
AcDbLine
 10
501.8699134776839
 20
13.98996197431796
 30
-280.5707619374045
 11
506.5464506581208
 21
13.98996197431806
 31
-277.8707619374037
  0
LINE
  5
CC
330
70
100
AcDbEntity
  8
Layer 01
100
AcDbLine
 10
501.8699134776833
 20
13.98996197428909
 30
-280.5707619374547
 11
501.5716110054742
 21
13.8579670443808
 31
-281.6540868996022
  0
ARC
  5
CD
330
70
100
AcDbEntity
  8
Layer 01
100
AcDbCircle
 10
-173.245008947178
 20
259.4288873988238
 30
-488.2388011031575
 40
3.500000000000191
210
-0.493147313531744
220
0.1649936623815503
230
0.8541562026528561
100
AcDbArc
 50
207.1042957876171
 51
4.793075451701626
  0
LINE
  5
CE
330
70
100
AcDbEntity
  8
Layer 01
100
AcDbLine
 10
504.1359770358935
 20
13.00000000000417
 30
-286.095699153379
 11
501.5716110055297
 21
13.85796704438813
 31
-281.6540868995867
  0
ARC
  5
CF
330
70
100
AcDbEntity
  8
Layer 01
100
AcDbCircle
 10
-502.6331617338365
 20
-270.6571721028102
 30
95.28037601532378
 40
1.000000000000012
210
0.08249683119072668
220
0.9862946270633035
230
-0.1428887030858207
100
AcDbArc
 50
239.6564450989095
 51
59.65644509856931
  0
LINE
  5
D0
330
70
100
AcDbEntity
  8
Layer 01
100
AcDbLine
 10
504.3790309093042
 20
10.2423421340535
 30
-281.5166808111697
 11
504.9324364753382
 21
16.85860761344302
 31
-282.4752073687325
  0
ARC
  5
D1
330
70
100
AcDbEntity
  8
Layer 01
100
AcDbCircle
 10
-502.6331617338371
 20
-270.6571721028059
 30
95.30221897833053
 40
0.9999999999999115
210
0.08249683119072311
220
0.9862946270632964
230
-0.1428887030858714
100
AcDbArc
 50
59.65644509859392
 51
239.6564450985951
  0
LINE
  5
D2
330
70
100
AcDbEntity
  8
Layer 01
100
AcDbLine
 10
506.1110817152747
 20
10.24234211493989
 30
-280.5166808084005
 11
506.6644872842734
 21
16.85860762977437
 31
-281.4752073710987
  0
ARC
  5
D3
330
70
100
AcDbEntity
  8
Layer 01
100
AcDbCircle
 10
-173.2450089471449
 20
259.4288873988645
 30
-488.2388011031733
 40
3.500000000000007
210
-0.4931473135317055
220
0.1649936623814997
230
0.8541562026528878
100
AcDbArc
 50
27.10345511843531
 51
184.794432013495
  0
LINE
  5
D4
330
70
100
AcDbEntity
  8
Layer 01
100
AcDbLine
 10
504.7398728731442
 20
10.26343733798703
 30
-280.1416774259758
 11
504.3139610096129
 21
10.40593584966401
 31
-279.4039764387933
  0
LINE
  5
D5
330
70
100
AcDbEntity
  8
Layer 01
100
AcDbLine
 10
510.1981548623845
 20
13.00000000000389
 30
-282.5956991533783
 11
507.633788832021
 21
13.85796704438739
 31
-278.1540868995856
  0
LINE
  5
D6
330
70
100
AcDbEntity
  8
Layer 01
100
AcDbLine
 10
505.3173506914694
 20
17.16749972743312
 30
-281.1418983475605
 11
504.8914388279381
 21
17.30999823911007
 31
-280.4041973603781
  0
ARC
  5
D7
330
70
100
AcDbEntity
  8
Layer 01
100
AcDbCircle
 10
173.2450089471343
 20
259.428887398832
 30
485.6285749094416
 40
3.48977380632703
210
0.4931473135316876
220
-0.1649936623815043
230
-0.8541562026528975
100
AcDbArc
 50
344.0512605651037
 51
164.0512605651192
  0
LINE
  5
D8
330
70
100
AcDbEntity
  8
Layer 01
100
AcDbLine
 10
504.4309235121146
 20
16.65295746735935
 30
-279.606561435792
 11
504.8914388278999
 21
17.30999823911522
 31
-280.4041973603958
  0
LINE
  5
D9
330
70
100
AcDbEntity
  8
Layer 01
100
AcDbLine
 10
506.546450658112
 20
13.98996197428918
 30
-277.8707619374587
 11
507.6337888319902
 21
13.85796704438092
 31
-278.1540868995876
  0
LINE
  5
DA
330
70
100
AcDbEntity
  8
Layer 01
100
AcDbLine
 10
507.4558048582677
 20
16.45203119472265
 30
-284.8458096142004
 11
506.8783270399323
 21
9.547968805275401
 31
-283.8455886925992
  0
LINE
  5
DB
330
70
100
AcDbEntity
  8
Layer 01
100
AcDbLine
 10
504.1359770358526
 20
12.99999999999887
 30
-286.095699153401
 11
510.1981548623471
 21
12.99999999999901
 31
-282.5956991533986
  0
ARC
  5
DC
330
70
100
AcDbEntity
  8
Layer 01
100
AcDbCircle
 10
29.65733178108838
 20
-6.071612610127693
 30
17.10815825591891
 40
4.000000000001725
210
0.986144409614397
220
0.164993662381373
230
0.01721321469841995
100
AcDbArc
 50
179.8349900384849
 51
359.8349900384707
  0
SPLINE
  5
DD
330
70
100
AcDbEntity
  8
Layer 01
100
AcDbSpline
210
0.0
220
0.0
230
1.0
 70
    24
 71
     2
 72
     6
 73
     3
 74
     0
 42
0.000000001
 43
0.0000000001
 40
-0.7071067811884255
 40
-0.7071067811884255
 40
-0.7071067811884255
 40
0.0
 40
0.0
 40
0.0
 10
13.1506589882
 20
28.72119537421
 30
-5.757541663890999
 10
12.945365019055
 20
28.43337330185
 30
-5.761125083451999
 10
12.74007104991
 20
28.14555122949
 30
-5.764708503012999
  0
ARC
  5
DE
330
70
100
AcDbEntity
  8
Layer 01
100
AcDbCircle
 10
29.65733178107009
 20
-6.071612610128391
 30
17.6081582559503
 40
3.500000000003981
210
0.9861444096142371
220
0.1649936623823279
230
0.01721321469841715
100
AcDbArc
 50
179.8349900384748
 51
359.8349900384748
  0
SPLINE
  5
DF
330
70
100
AcDbEntity
  8
Layer 01
100
AcDbSpline
210
0.0
220
0.0
230
1.0
 70
    24
 71
     2
 72
     6
 73
     3
 74
     0
 42
0.000000001
 43
0.0000000001
 40
-0.7071067811852367
 40
-0.7071067811852367
 40
-0.7071067811852367
 40
0.0
 40
0.0
 40
0.0
 10
11.42032278553
 20
36.03590824599999
 30
-5.787744794656
 10
11.708101021195
 20
35.83058300483
 30
-5.7827216068675
 10
11.99587925686
 20
35.62525776366
 30
-5.777698419079
  0
SPLINE
  5
E0
330
70
100
AcDbEntity
  8
Layer 01
100
AcDbSpline
210
0.0
220
0.0
230
1.0
 70
    24
 71
     2
 72
     6
 73
     3
 74
     0
 42
0.000000001
 43
0.0000000001
 40
-0.5000991404232075
 40
-0.5000991404232075
 40
-0.5000991404232075
 40
0.0
 40
0.0
 40
0.0
 10
10.92715281395
 20
35.95339505726
 30
-5.796353108530999
 10
11.17373779974
 20
35.99465165162999
 30
-5.792048951593499
 10
11.42032278553
 20
36.03590824599999
 30
-5.787744794656
  0
ARC
  5
E1
330
70
100
AcDbEntity
  8
Layer 01
100
AcDbCircle
 10
29.65733178108194
 20
-6.071612610128202
 30
16.60805911550271
 40
3.999999999996799
210
0.9861444096143627
220
0.1649936623815781
230
0.01721321469841935
100
AcDbArc
 50
179.8349900384705
 51
359.8349900384704
  0
SPLINE
  5
E2
330
70
100
AcDbEntity
  8
Layer 01
100
AcDbSpline
210
0.0
220
0.0
230
1.0
 70
    24
 71
     2
 72
     6
 73
     3
 74
     0
 42
0.000000001
 43
0.0000000001
 40
-0.5000991404215414
 40
-0.5000991404215414
 40
-0.5000991404215414
 40
0.0
 40
0.0
 40
0.0
 10
12.74007104991
 20
28.14555122949
 30
-5.764708503012999
 10
12.49348606412
 20
28.10429463512499
 30
-5.76901265995
 10
12.24690107833
 20
28.06303804076
 30
-5.773316816887
  0
ARC
  5
E3
330
70
100
AcDbEntity
  8
Layer 01
100
AcDbCircle
 10
-29.65733178108838
 20
-6.07161261012769
 30
-17.1081582559189
 40
4.000000000001725
210
-0.9861444096143972
220
-0.1649936623813728
230
-0.01721321469841995
100
AcDbArc
 50
0.1650099615150789
 51
180.1650099615293
  0
ARC
  5
E4
330
70
100
AcDbEntity
  8
Layer 01
100
AcDbCircle
 10
29.65733178108193
 20
-6.071612610128196
 30
16.60805911550272
 40
3.999999999996799
210
0.9861444096143627
220
0.1649936623815784
230
0.01721321469841936
100
AcDbArc
 50
359.8349900384704
 51
179.8349900384705
  0
ARC
  5
E5
330
70
100
AcDbEntity
  8
Layer 01
100
AcDbCircle
 10
29.65733178107008
 20
-6.07161261012839
 30
17.60815825595032
 40
3.500000000003982
210
0.9861444096142371
220
0.1649936623823287
230
0.01721321469841716
100
AcDbArc
 50
359.8349900384748
 51
179.8349900384748
  0
ARC
  5
E6
330
70
100
AcDbEntity
  8
Layer 01
100
AcDbCircle
 10
-29.65733178107994
 20
-6.071612610175659
 30
-17.6081582559084
 40
1.499999999999983
210
-0.9861444096143296
220
-0.1649936623814962
230
-0.01721321470109792
100
AcDbArc
 50
90.16500996155311
 51
270.1650099615521
  0
ARC
  5
E7
330
70
100
AcDbEntity
  8
Layer 01
100
AcDbCircle
 10
-29.65733178108334
 20
-6.071612610117834
 30
-16.608059115499
 40
1.500000000000397
210
-0.9861444096143872
220
-0.1649936623814962
230
-0.01721321469780309
100
AcDbArc
 50
90.16500996155304
 51
270.1650099614893
  0
ARC
  5
E8
330
70
100
AcDbEntity
  8
Layer 01
100
AcDbCircle
 10
-29.65733178107996
 20
-6.071612610175658
 30
-17.6081582559084
 40
1.499999999999983
210
-0.9861444096143296
220
-0.1649936623814961
230
-0.01721321470109772
100
AcDbArc
 50
270.1650099615531
 51
90.1650099615527
  0
SPLINE
  5
E9
330
70
100
AcDbEntity
  8
Layer 01
100
AcDbSpline
210
0.0
220
0.0
230
1.0
 70
    24
 71
     2
 72
     6
 73
     3
 74
     0
 42
0.000000001
 43
0.0000000001
 40
0.0
 40
0.0
 40
0.0
 40
1.000099140424186
 40
1.000099140424186
 40
1.000099140424186
 10
12.54709051287
 20
32.17322656892999
 30
-4.267848498751
 10
12.053969424675
 20
32.09072155897
 30
-4.2764559593625
 10
11.56084833648
 20
32.00821654901
 30
-4.285063419974
  0
ARC
  5
EA
330
70
100
AcDbEntity
  8
Layer 01
100
AcDbCircle
 10
-29.65733178108335
 20
-6.071612610117834
 30
-16.608059115499
 40
1.500000000000397
210
-0.9861444096143872
220
-0.1649936623814961
230
-0.01721321469780309
100
AcDbArc
 50
270.1650099614897
 51
90.1650099615525
  0
SPLINE
  5
EB
330
70
100
AcDbEntity
  8
Layer 01
100
AcDbSpline
210
0.0
220
0.0
230
1.0
 70
    24
 71
     2
 72
     6
 73
     3
 74
     0
 42
0.000000001
 43
0.0000000001
 40
0.0
 40
0.0
 40
0.0
 40
1.000099140434066
 40
1.000099140434066
 40
1.000099140434066
 10
11.61320555579
 20
32.00821654901
 30
-7.284606505444
 10
12.10632664399
 20
32.09072155897
 30
-7.275999044832
 10
12.59944773219
 20
32.17322656892999
 30
-7.26739158422
  0
LINE
  5
EC
330
70
100
AcDbEntity
  8
Layer 01
100
AcDbLine
 10
11.99587925686227
 20
35.62525776366039
 30
-5.777698419079125
 11
12.32581632295875
 21
33.65266850952494
 31
-5.771939346168185
  0
LINE
  5
ED
330
70
100
AcDbEntity
  8
Layer 01
100
AcDbLine
 10
12.82072192210125
 20
30.69378462833505
 30
-5.763300736801813
 11
13.1506589881961
 21
28.72119537420934
 31
-5.757541663890903
  0
LINE
  5
EE
330
70
100
AcDbEntity
  8
Layer 01
100
AcDbLine
 10
12.51218569999862
 20
32.17322656893487
 30
-2.268153108433662
 11
12.54709051287327
 21
32.17322656893487
 31
-4.267848498750944
  0
LINE
  5
EF
330
70
100
AcDbEntity
  8
Layer 01
100
AcDbLine
 10
12.59944773218512
 20
32.17322656893487
 30
-7.267391584220086
 11
12.63435254505976
 21
32.17322656893487
 31
-9.267086974536365
  0
LINE
  5
F0
330
70
100
AcDbEntity
  8
Layer 01
100
AcDbLine
 10
12.63268943020527
 20
32.18316829154926
 30
-9.267101487241602
 11
12.14810584078036
 21
32.10209170644703
 31
-9.775634015413223
  0
LINE
  5
F1
330
70
100
AcDbEntity
  8
Layer 01
100
AcDbLine
 10
13.15083251170874
 20
28.72120969013851
 30
-5.767620041484941
 11
12.74026936249721
 21
28.14556759054702
 31
-5.776226648834172
  0
ARC
  5
F2
330
70
100
AcDbEntity
  8
Layer 01
100
AcDbCircle
 10
29.6573317810806
 20
-6.071612610127752
 30
16.8581086857103
 40
3.999999999999999
210
0.9861444096143844
220
0.1649936623814486
230
0.01721321469842255
100
AcDbArc
 50
179.834990038473
 51
359.8349900384729
  0
LINE
  5
F3
330
70
100
AcDbEntity
  8
Layer 01
100
AcDbLine
 10
11.65683657188973
 20
32.00821654900653
 30
-9.78422574333413
 11
12.15000654347021
 21
32.09072973773863
 31
-9.775617429459542
  0
ARC
  5
F4
330
70
100
AcDbEntity
  8
Layer 01
100
AcDbCircle
 10
29.65733178108057
 20
-6.071612610127692
 30
16.85810868571054
 40
4.0
210
0.9861444096143838
220
0.1649936623814514
230
0.01721321469841892
100
AcDbArc
 50
359.834990038473
 51
179.834990038473
  0
LINE
  5
F5
330
70
100
AcDbEntity
  8
Layer 01
100
AcDbLine
 10
11.51721732039143
 20
32.00821654900653
 30
-1.785444182082998
 11
12.01038729197191
 21
32.09072973773864
 31
-1.776835868208414
  0
LINE
  5
F6
330
70
100
AcDbEntity
  8
Layer 01
100
AcDbLine
 10
12.51384881485074
 20
32.16328484630956
 30
-2.268138595728451
 11
12.01228799466088
 21
32.07936776903023
 31
-1.776819282255251
  0
LINE
  5
F7
330
70
100
AcDbEntity
  8
Layer 01
100
AcDbLine
 10
11.99570573334593
 20
35.62524344772832
 30
-5.767620041485094
 11
11.42012447294307
 21
36.03589188493604
 31
-5.776226648834288
  0
LINE
  5
F8
330
70
100
AcDbEntity
  8
Layer 01
100
AcDbLine
 10
10.92715281395052
 20
35.95339505726009
 30
-5.796353108530822
 11
11.33957414656868
 21
33.48765848960535
 31
-5.789154267392188
  0
LINE
  5
F9
330
70
100
AcDbEntity
  8
Layer 01
100
AcDbLine
 10
11.83447974571132
 20
30.52877460841464
 30
-5.780515658025815
 11
12.24690107832948
 21
28.0630380407599
 31
-5.773316816887183
  0
LINE
  5
FA
330
70
100
AcDbEntity
  8
Layer 01
100
AcDbLine
 10
11.51721732039091
 20
32.00821654900999
 30
-1.785444182086632
 11
11.56084833648406
 21
32.00821654900999
 31
-4.285063419973929
  0
LINE
  5
FB
330
70
100
AcDbEntity
  8
Layer 01
100
AcDbLine
 10
11.61320555579593
 20
32.00821654900999
 30
-7.284606505443897
 11
11.65683657188909
 21
32.00821654900999
 31
-9.784225743331374
  0
ARC
  5
FC
330
70
100
AcDbEntity
  8
Layer 01
100
AcDbCircle
 10
29.65733178108012
 20
-6.071612610127862
 30
17.10810868571238
 40
1.500000000000004
210
0.9861444096143767
220
0.1649936623814947
230
0.01721321469841188
100
AcDbArc
 50
269.8349900385404
 51
89.83499003839887
  0
LINE
  5
FD
330
70
100
AcDbEntity
  8
Layer 01
100
AcDbLine
 10
12.46380570773427
 20
32.1505320485647
 30
-7.269759224563396
 11
12.59944773218988
 21
32.17322656893066
 31
-7.267391584219529
  0
LINE
  5
FE
330
70
100
AcDbEntity
  8
Layer 01
100
AcDbLine
 10
11.33957414656434
 20
33.48765848960097
 30
-5.789154267392098
 11
12.32581632295866
 21
33.65266850952496
 31
-5.771939346168197
  0
ARC
  5
FF
330
70
100
AcDbEntity
  8
Layer 01
100
AcDbCircle
 10
29.65733178108017
 20
-6.071612610127863
 30
17.10810868571214
 40
1.499999999999996
210
0.9861444096143773
220
0.1649936623814918
230
0.01721321469841195
100
AcDbArc
 50
89.8349900383986
 51
269.8349900385407
  0
LINE
  5
100
330
70
100
AcDbEntity
  8
Layer 01
100
AcDbLine
 10
11.56084833648065
 20
32.00821654900615
 30
-4.285063419974309
 11
12.54709051287011
 21
32.17322656892931
 31
-4.267848498750487
  0
LINE
  5
101
330
70
100
AcDbEntity
  8
Layer 01
100
AcDbLine
 10
11.83447974570699
 20
30.52877460841105
 30
-5.78051565802573
 11
12.82072192210132
 21
30.69378462833502
 31
-5.763300736801833
  0
LINE
  5
102
330
70
100
AcDbEntity
  8
Layer 01
100
AcDbLine
 10
11.61320555579068
 20
32.00821654900585
 30
-7.284606505443522
 11
12.4645677846517
 21
32.15065955307661
 31
-7.269745922461328
  0
ARC
  5
103
330
70
100
AcDbEntity
  8
Layer 01
100
AcDbCircle
 10
0.0000000000000107
 20
33.9999999999993
 30
-0.000000000000042
 40
11.00000000000432
210
-1.224646799148139E-16
220
-8.538797667515334E-29
230
-1.0
100
AcDbArc
 50
9.496866303711904
 51
170.5031336962881
  0
ARC
  5
104
330
70
100
AcDbEntity
  8
Layer 01
100
AcDbCircle
 10
-343.0
 20
0.0
 30
35.8149302862
 40
353.8492408977
210
1.004019019452302E-17
220
1.0
230
-1.229568678412297E-33
100
AcDbArc
 50
180.0
 51
0.000000000000007
  0
ARC
  5
105
330
70
100
AcDbEntity
  8
Layer 01
100
AcDbCircle
 10
343.0
 20
0.0
 30
-35.8149302862
 40
332.1507591023
210
0.0
220
-1.0
230
0.0
100
AcDbArc
 50
180.0
 51
0.0
  0
ARC
  5
106
330
70
100
AcDbEntity
  8
Layer 01
100
AcDbCircle
 10
686.0
 20
33.99999999999915
 30
-0.0000000000000111
 40
11.00000000000438
100
AcDbArc
 50
9.496866303712608
 51
170.5031336962874
  0
ARC
  5
107
330
70
100
AcDbEntity
  8
Layer 01
100
AcDbCircle
 10
343.0
 20
0.0
 30
-35.8149302862
 40
332.1507591023
210
0.0
220
-1.0
230
0.0
100
AcDbArc
 50
0.0
 51
180.0
  0
ARC
  5
108
330
70
100
AcDbEntity
  8
Layer 01
100
AcDbCircle
 10
-343.0
 20
0.0
 30
35.8149302862
 40
353.8492408977
210
5.276994212880576E-60
220
1.0
230
4.308992777798811E-44
100
AcDbArc
 50
0.000000000000014
 51
180.0
  0
SPLINE
  5
109
330
70
100
AcDbEntity
  8
Layer 01
100
AcDbSpline
210
0.0
220
0.0
230
1.0
 70
    24
 71
     2
 72
     6
 73
     3
 74
     0
 42
0.000000001
 43
0.0000000001
 40
0.0
 40
0.0
 40
0.0
 40
35.72201702032265
 40
35.72201702032265
 40
35.72201702032265
 10
10.84924089770002
 20
35.8149302862
 30
0.0000000000000407
 10
13.79619410561502
 20
18.19871355869535
 30
0.0000000000000403
 10
16.74314731353001
 20
0.5824968311907001
 30
0.00000000000004
  0
ARC
  5
10A
330
70
100
AcDbEntity
  8
Layer 01
100
AcDbCircle
 10
-343.000000000015
 20
0.0
 30
0.5824968311907001
 40
326.256852686485
210
1.701455487422390E-19
220
1.0
230
-2.083682015740361E-35
100
AcDbArc
 50
0.000000000000014
 51
180.0
  0
SPLINE
  5
10B
330
70
100
AcDbEntity
  8
Layer 01
100
AcDbSpline
210
0.0
220
0.0
230
1.0
 70
    24
 71
     2
 72
     6
 73
     3
 74
     0
 42
0.000000001
 43
0.0000000001
 40
0.0
 40
0.0
 40
0.0
 40
35.72201702031769
 40
35.72201702031769
 40
35.72201702031769
 10
669.2568526865
 20
0.5824968311906995
 30
-0.00000000000002
 10
672.2038058943999
 20
18.19871355869535
 30
-0.0000000000000202
 10
675.1507591023
 20
35.8149302862
 30
-0.0000000000000203
  0
ARC
  5
10C
330
70
100
AcDbEntity
  8
Layer 01
100
AcDbCircle
 10
-343.000000000015
 20
0.0
 30
0.5824968311907
 40
326.256852686485
210
6.805821949689561E-19
220
1.0
230
-8.334728065431231E-35
100
AcDbArc
 50
180.0
 51
0.000000000000007
  0
ARC
  5
10D
330
70
100
AcDbEntity
  8
Layer 01
100
AcDbCircle
 10
-16.25
 20
0.4999999999986032
 30
-0.00000000000004
 40
0.4999999999986032
210
0.0
220
-1.036797535482685E-16
230
-1.0
100
AcDbArc
 50
170.5031336961233
 51
270.0
  0
ARC
  5
10E
330
70
100
AcDbEntity
  8
Layer 01
100
AcDbCircle
 10
343.0
 20
0.0
 30
0.0
 40
326.75
210
0.0
220
-1.0
230
0.0
100
AcDbArc
 50
180.0
 51
0.0
  0
ARC
  5
10F
330
70
100
AcDbEntity
  8
Layer 01
100
AcDbCircle
 10
669.75
 20
0.4999999999731904
 30
-0.0000000000000171
 40
0.4999999999731904
100
AcDbArc
 50
170.503133692684
 51
270.0
  0
ARC
  5
110
330
70
100
AcDbEntity
  8
Layer 01
100
AcDbCircle
 10
343.0
 20
0.0
 30
0.0
 40
326.75
210
0.0
220
-1.0
230
0.0
100
AcDbArc
 50
0.0
 51
180.0
  0
SPLINE
  5
111
330
70
100
AcDbEntity
  8
Layer 01
100
AcDbSpline
210
0.0
220
0.0
230
1.0
 70
    24
 71
     2
 72
     6
 73
     3
 74
     0
 42
0.000000001
 43
0.0000000001
 40
-8.219641111386498
 40
-8.219641111386498
 40
-8.219641111386498
 40
0.0
 40
0.0
 40
0.0
 10
15.0
 20
0.0
 30
0.0000000000000268
 10
13.50852177705501
 20
3.8296367596
 30
0.0000000000000337
 10
12.01704355411002
 20
7.6592735192
 30
0.0000000000000405
  0
ARC
  5
112
330
70
100
AcDbEntity
  8
Layer 01
100
AcDbCircle
 10
-343.0
 20
0.0
 30
0.0
 40
328.0
210
-3.038919431537219E-61
220
1.0
230
-7.444398091725591E-45
100
AcDbArc
 50
180.0
 51
0.0000000000000047
  0
SPLINE
  5
113
330
70
100
AcDbEntity
  8
Layer 01
100
AcDbSpline
210
0.0
220
0.0
230
1.0
 70
    24
 71
     2
 72
     6
 73
     3
 74
     0
 42
0.000000001
 43
0.0000000001
 40
-8.219641111390112
 40
-8.219641111390112
 40
-8.219641111390112
 40
0.0
 40
0.0
 40
0.0
 10
673.9829564459
 20
7.6592735192
 30
-0.0000000000000203
 10
672.49147822295
 20
3.8296367596
 30
-0.0000000000000191
 10
671.0
 20
0.0
 30
-0.0000000000000179
  0
ARC
  5
114
330
70
100
AcDbEntity
  8
Layer 01
100
AcDbCircle
 10
343.000000000005
 20
0.0
 30
-7.6592735192
 40
330.982956445895
210
8.151454475181537E-61
220
-1.0
230
6.656167705542882E-45
100
AcDbArc
 50
180.0
 51
0.0
  0
ARC
  5
115
330
70
100
AcDbEntity
  8
Layer 01
100
AcDbCircle
 10
343.000000000005
 20
0.0
 30
-7.6592735192
 40
330.982956445895
210
6.113590856386181E-61
220
-1.0
230
6.656167705542882E-45
100
AcDbArc
 50
0.0
 51
180.0
  0
ARC
  5
116
330
70
100
AcDbEntity
  8
Layer 01
100
AcDbCircle
 10
-343.0
 20
0.0
 30
0.0
 40
328.0
210
-3.038919431537252E-61
220
1.0
230
-7.444398091725591E-45
100
AcDbArc
 50
0.0000000000000117
 51
180.0
  0
SPLINE
  5
117
330
70
100
AcDbEntity
  8
Layer 01
100
AcDbSpline
210
0.0
220
0.0
230
1.0
 70
    24
 71
     2
 72
     6
 73
     3
 74
     0
 42
0.000000001
 43
0.0000000001
 40
-0.7063811845129999
 40
-0.7063811845129999
 40
-0.7063811845129999
 40
0.0
 40
0.0
 40
0.0
 10
12.01704355411003
 20
8.365654703713
 30
0.000000000000027
 10
12.01704355411003
 20
8.0124641114565
 30
0.0000000000000338
 10
12.01704355411002
 20
7.6592735192
 30
0.0000000000000405
  0
ARC
  5
118
330
70
100
AcDbEntity
  8
Layer 01
100
AcDbCircle
 10
343.0000000000049
 20
0.0
 30
-8.365654703713
 40
330.9829564458949
210
0.0
220
-1.0
230
0.0
100
AcDbArc
 50
0.0000000000000023
 51
180.0
  0
SPLINE
  5
119
330
70
100
AcDbEntity
  8
Layer 01
100
AcDbSpline
210
0.0
220
0.0
230
1.0
 70
    24
 71
     2
 72
     6
 73
     3
 74
     0
 42
0.000000001
 43
0.0000000001
 40
-0.7063811845129999
 40
-0.7063811845129999
 40
-0.7063811845129999
 40
0.0
 40
0.0
 40
0.0
 10
673.9829564459
 20
7.6592735192
 30
-0.0000000000000203
 10
673.9829564458998
 20
8.0124641114565
 30
-0.0000000000000191
 10
673.9829564458998
 20
8.365654703713
 30
-0.000000000000018
  0
ARC
  5
11A
330
70
100
AcDbEntity
  8
Layer 01
100
AcDbCircle
 10
343.000000000005
 20
0.0
 30
-8.365654703713
 40
330.982956445895
210
0.0
220
-1.0
230
0.0
100
AcDbArc
 50
180.0
 51
0.0
  0
SPLINE
  5
11B
330
70
100
AcDbEntity
  8
Layer 01
100
AcDbSpline
210
0.0
220
0.0
230
1.0
 70
    24
 71
     2
 72
     6
 73
     3
 74
     0
 42
0.000000001
 43
0.0000000001
 40
0.0
 40
0.0
 40
0.0
 40
0.7063811845129999
 40
0.7063811845129999
 40
0.7063811845129999
 10
-12.01704355411002
 20
7.6592735192
 30
0.0000000000000435
 10
-12.01704355411003
 20
8.0124641114565
 30
0.0000000000000362
 10
-12.01704355411003
 20
8.365654703713
 30
0.000000000000029
  0
ARC
  5
11C
330
70
100
AcDbEntity
  8
Layer 01
100
AcDbCircle
 10
-342.999999999995
 20
0.0
 30
8.365654703713
 40
355.017043554105
210
0.0
220
1.0
230
0.0
100
AcDbArc
 50
180.0
 51
0.0000000000000047
  0
SPLINE
  5
11D
330
70
100
AcDbEntity
  8
Layer 01
100
AcDbSpline
210
0.0
220
0.0
230
1.0
 70
    24
 71
     2
 72
     6
 73
     3
 74
     0
 42
0.000000001
 43
0.0000000001
 40
0.0
 40
0.0
 40
0.0
 40
0.7063811845129999
 40
0.7063811845129999
 40
0.7063811845129999
 10
698.0170435541
 20
8.365654703713
 30
-0.0000000000000193
 10
698.0170435541
 20
8.0124641114565
 30
-0.0000000000000205
 10
698.0170435541
 20
7.6592735192
 30
-0.0000000000000217
  0
ARC
  5
11E
330
70
100
AcDbEntity
  8
Layer 01
100
AcDbCircle
 10
-342.999999999995
 20
0.0
 30
7.6592735192
 40
355.017043554105
210
0.0
220
1.0
230
0.0
100
AcDbArc
 50
180.0
 51
0.000000000000007
  0
ARC
  5
11F
330
70
100
AcDbEntity
  8
Layer 01
100
AcDbCircle
 10
-342.999999999995
 20
0.0
 30
7.6592735192
 40
355.017043554105
210
0.0
220
1.0
230
0.0
100
AcDbArc
 50
0.000000000000014
 51
180.0
  0
ARC
  5
120
330
70
100
AcDbEntity
  8
Layer 01
100
AcDbCircle
 10
-342.999999999995
 20
0.0
 30
8.365654703713
 40
355.017043554105
210
0.0
220
1.0
230
0.0
100
AcDbArc
 50
0.0000000000000117
 51
180.0
  0
SPLINE
  5
121
330
70
100
AcDbEntity
  8
Layer 01
100
AcDbSpline
210
0.0
220
0.0
230
1.0
 70
    24
 71
     2
 72
     6
 73
     3
 74
     0
 42
0.000000001
 43
0.0000000001
 40
0.0
 40
0.0
 40
0.0
 40
8.219641111386498
 40
8.219641111386498
 40
8.219641111386498
 10
-12.01704355411002
 20
7.6592735192
 30
0.0000000000000435
 10
-13.50852177705501
 20
3.8296367596
 30
0.0000000000000364
 10
-15.0
 20
0.0
 30
0.0000000000000292
  0
ARC
  5
122
330
70
100
AcDbEntity
  8
Layer 01
100
AcDbCircle
 10
-343.0
 20
0.0
 30
0.0
 40
358.0
210
-6.435358796195582E-62
220
1.0
230
-1.576460772365419E-45
100
AcDbArc
 50
0.0000000000000117
 51
180.0
  0
SPLINE
  5
123
330
70
100
AcDbEntity
  8
Layer 01
100
AcDbSpline
210
0.0
220
0.0
230
1.0
 70
    24
 71
     2
 72
     6
 73
     3
 74
     0
 42
0.000000001
 43
0.0000000001
 40
0.0
 40
0.0
 40
0.0
 40
8.219641111390112
 40
8.219641111390112
 40
8.219641111390112
 10
701.0
 20
0.0
 30
-0.0000000000000195
 10
699.50852177705
 20
3.8296367596
 30
-0.0000000000000206
 10
698.0170435541
 20
7.6592735192
 30
-0.0000000000000217
  0
ARC
  5
124
330
70
100
AcDbEntity
  8
Layer 01
100
AcDbCircle
 10
-343.0
 20
0.0
 30
0.0
 40
358.0
210
-6.435358796195600E-62
220
1.0
230
-1.576460772365419E-45
100
AcDbArc
 50
180.0
 51
0.0000000000000047
  0
ARC
  5
125
330
70
100
AcDbEntity
  8
Layer 01
100
AcDbCircle
 10
-342.9999999999866
 20
0.0
 30
0.4999999999999999
 40
359.7499999999866
210
2.314571976286027E-19
220
1.0
230
0.0
100
AcDbArc
 50
180.0
 51
0.0
  0
ARC
  5
126
330
70
100
AcDbEntity
  8
Layer 01
100
AcDbCircle
 10
702.2500000000036
 20
0.4999999999737872
 30
0.0
 40
0.4999999999695303
100
AcDbArc
 50
0.0000000030037476
 51
9.496866307328556
  0
ARC
  5
127
330
70
100
AcDbEntity
  8
Layer 01
100
AcDbCircle
 10
16.25
 20
0.4999999999986094
 30
-0.000000000000044
 40
0.4999999999986109
210
-1.456927484330052E-29
220
1.036797535473819E-16
230
-1.0
100
AcDbArc
 50
270.0
 51
0.0000000001593458
  0
ARC
  5
128
330
70
100
AcDbEntity
  8
Layer 01
100
AcDbCircle
 10
16.24999999999979
 20
0.4999999999985718
 30
-0.000000000000044
 40
0.4999999999988243
210
-3.507471969842965E-29
220
1.036797535473877E-16
230
-1.0
100
AcDbArc
 50
0.0000000001636523
 51
9.496866303887764
  0
ARC
  5
129
330
70
100
AcDbEntity
  8
Layer 01
100
AcDbCircle
 10
-343.0
 20
0.0
 30
0.0
 40
359.25
210
0.0
220
1.0
230
0.0
100
AcDbArc
 50
180.0
 51
0.000000000000007
  0
ARC
  5
12A
330
70
100
AcDbEntity
  8
Layer 01
100
AcDbCircle
 10
342.999999999985
 20
0.0
 30
-0.5824968311907999
 40
359.743147313515
210
-1.543077377451197E-19
220
-1.0
230
1.889724771098940E-35
100
AcDbArc
 50
180.0
 51
0.0
  0
ARC
  5
12B
330
70
100
AcDbEntity
  8
Layer 01
100
AcDbCircle
 10
702.25
 20
0.4999999999731999
 30
-0.0000000000000293
 40
0.4999999999731699
100
AcDbArc
 50
270.0
 51
0.0000000030710291
  0
ARC
  5
12C
330
70
100
AcDbEntity
  8
Layer 01
100
AcDbCircle
 10
342.999999999985
 20
0.0
 30
-0.5824968311907999
 40
359.743147313515
210
-9.258464264707181E-19
220
-1.0
230
1.133834862676051E-34
100
AcDbArc
 50
0.0
 51
180.0
  0
ARC
  5
12D
330
70
100
AcDbEntity
  8
Layer 01
100
AcDbCircle
 10
-343.0
 20
0.0
 30
0.0
 40
359.25
210
0.0
220
1.0
230
0.0
100
AcDbArc
 50
0.000000000000007
 51
180.0
  0
ARC
  5
12E
330
70
100
AcDbEntity
  8
Layer 01
100
AcDbCircle
 10
-343.0000000000007
 20
0.0
 30
0.4999999999999999
 40
359.7499999999993
210
-1.543047984190630E-19
220
1.0
230
0.0
100
AcDbArc
 50
0.000000000000007
 51
180.0
  0
SPLINE
  5
12F
330
70
100
AcDbEntity
  8
Layer 01
100
AcDbSpline
210
0.0
220
0.0
230
1.0
 70
    24
 71
     2
 72
     6
 73
     3
 74
     0
 42
0.000000001
 43
0.0000000001
 40
-35.72201702032255
 40
-35.72201702032255
 40
-35.72201702032255
 40
0.0
 40
0.0
 40
0.0
 10
-10.84924089770002
 20
35.8149302862
 30
0.0000000000000433
 10
-13.79619410561502
 20
18.1987135586954
 30
0.0000000000000437
 10
-16.74314731353001
 20
0.5824968311908
 30
0.0000000000000441
  0
SPLINE
  5
130
330
70
100
AcDbEntity
  8
Layer 01
100
AcDbSpline
210
0.0
220
0.0
230
1.0
 70
    24
 71
     2
 72
     6
 73
     3
 74
     0
 42
0.000000001
 43
0.0000000001
 40
-35.72201702031759
 40
-35.72201702031759
 40
-35.72201702031759
 40
0.0
 40
0.0
 40
0.0
 10
702.7431473135
 20
0.5824968311907992
 30
-0.000000000000022
 10
699.7961941056001
 20
18.1987135586954
 30
-0.0000000000000218
 10
696.8492408977
 20
35.8149302862
 30
-0.0000000000000217
  0
ARC
  5
131
330
70
100
AcDbEntity
  8
Layer 01
100
AcDbCircle
 10
-343.0
 20
0.0
 30
45.0
 40
343.0
210
0.0
220
1.0
230
0.0
100
AcDbArc
 50
180.0
 51
0.0
  0
ARC
  5
132
330
70
100
AcDbEntity
  8
Layer 01
100
AcDbCircle
 10
34.0
 20
-343.0
 30
343.0
 40
11.0
210
1.0
220
0.0
230
0.0
100
AcDbArc
 50
279.4968663037083
 51
80.5031336962917
  0
ARC
  5
133
330
70
100
AcDbEntity
  8
Layer 01
100
AcDbCircle
 10
-343.0
 20
0.0
 30
45.0
 40
343.0
210
0.0
220
1.0
230
0.0
100
AcDbArc
 50
0.0
 51
180.0
  0
ARC
  5
134
330
70
100
AcDbEntity
  8
Layer 01
100
AcDbCircle
 10
-34.0
 20
343.0
 30
-343.0
 40
11.0
210
-1.0
220
0.0
230
0.0
100
AcDbArc
 50
99.49686630370832
 51
260.5031336962917
  0
LINE
  5
135
330
70
100
AcDbEntity
  8
Layer 01
100
AcDbLine
 10
343.0
 20
0.5824968311910652
 30
326.256852686483
 11
343.0
 21
35.81493028619656
 31
332.1507591023183
  0
LINE
  5
136
330
70
100
AcDbEntity
  8
Layer 01
100
AcDbLine
 10
343.0
 20
0.5824968311910652
 30
-326.256852686483
 11
343.0
 21
35.81493028619656
 31
-332.1507591023183
  0
ARC
  5
137
330
70
100
AcDbEntity
  8
Layer 01
100
AcDbCircle
 10
-343.0
 20
0.0
 30
0.5
 40
326.25
210
0.0
220
1.0
230
0.0
100
AcDbArc
 50
180.0
 51
0.0
  0
ARC
  5
138
330
70
100
AcDbEntity
  8
Layer 01
100
AcDbCircle
 10
0.5
 20
-326.75
 30
343.0
 40
0.5
210
1.0
220
0.0
230
0.0
100
AcDbArc
 50
80.50313369599776
 51
180.0
  0
ARC
  5
139
330
70
100
AcDbEntity
  8
Layer 01
100
AcDbCircle
 10
-343.0
 20
0.0
 30
0.5
 40
326.25
210
0.0
220
1.0
230
0.0
100
AcDbArc
 50
0.0
 51
180.0
  0
ARC
  5
13A
330
70
100
AcDbEntity
  8
Layer 01
100
AcDbCircle
 10
-0.5
 20
326.75
 30
-343.0
 40
0.5
210
-1.0
220
0.0
230
0.0
100
AcDbArc
 50
260.5031336959977
 51
0.0
  0
LINE
  5
13B
330
70
100
AcDbEntity
  8
Layer 01
100
AcDbLine
 10
15.0
 20
0.0
 30
0.0
 11
16.25
 21
0.0
 31
0.0
  0
LINE
  5
13C
330
70
100
AcDbEntity
  8
Layer 01
100
AcDbLine
 10
669.7500000000001
 20
0.0
 30
0.0
 11
671.0
 21
0.0
 31
0.0
  0
LINE
  5
13D
330
70
100
AcDbEntity
  8
Layer 01
100
AcDbLine
 10
343.0
 20
0.0
 30
327.9999999999999
 11
343.0
 21
0.0
 31
326.75
  0
LINE
  5
13E
330
70
100
AcDbEntity
  8
Layer 01
100
AcDbLine
 10
343.0
 20
0.0
 30
-326.7500000000002
 11
343.0
 21
0.0
 31
-328.0
  0
LINE
  5
13F
330
70
100
AcDbEntity
  8
Layer 01
100
AcDbLine
 10
343.0
 20
0.0000000000150919
 30
-327.9999999999612
 11
343.0
 21
7.659273519216967
 31
-330.9829564458514
  0
LINE
  5
140
330
70
100
AcDbEntity
  8
Layer 01
100
AcDbLine
 10
343.0
 20
0.0000000000150919
 30
327.9999999999612
 11
343.0
 21
7.659273519216967
 31
330.9829564458514
  0
ARC
  5
141
330
70
100
AcDbEntity
  8
Layer 01
100
AcDbCircle
 10
-343.0
 20
0.0
 30
8.0124641114565
 40
330.9829564459001
210
0.0
220
1.0
230
0.0
100
AcDbArc
 50
0.0
 51
180.0
  0
LINE
  5
142
330
70
100
AcDbEntity
  8
Layer 01
100
AcDbLine
 10
343.0
 20
7.6592735192
 30
330.9829564459001
 11
343.0
 21
8.365654703713
 31
330.9829564459001
  0
ARC
  5
143
330
70
100
AcDbEntity
  8
Layer 01
100
AcDbCircle
 10
-343.0
 20
0.0
 30
8.0124641114565
 40
330.9829564459001
210
0.0
220
1.0
230
0.0
100
AcDbArc
 50
180.0
 51
0.0
  0
LINE
  5
144
330
70
100
AcDbEntity
  8
Layer 01
100
AcDbLine
 10
343.0
 20
7.6592735192
 30
-330.9829564459001
 11
343.0
 21
8.365654703713
 31
-330.9829564459001
  0
LINE
  5
145
330
70
100
AcDbEntity
  8
Layer 01
100
AcDbLine
 10
-12.01704355411005
 20
8.365654703713
 30
0.0
 11
12.01704355411005
 21
8.365654703713
 31
0.0
  0
LINE
  5
146
330
70
100
AcDbEntity
  8
Layer 01
100
AcDbLine
 10
673.9829564459
 20
8.365654703713
 30
0.0
 11
698.0170435541
 21
8.365654703713
 31
0.0
  0
LINE
  5
147
330
70
100
AcDbEntity
  8
Layer 01
100
AcDbLine
 10
342.999999999995
 20
8.365654703713
 30
355.017043554105
 11
342.999999999995
 21
8.365654703713
 31
330.982956445895
  0
LINE
  5
148
330
70
100
AcDbEntity
  8
Layer 01
100
AcDbLine
 10
342.999999999995
 20
8.365654703713
 30
-330.9829564458949
 11
342.999999999995
 21
8.365654703713
 31
-355.0170435541051
  0
ARC
  5
149
330
70
100
AcDbEntity
  8
Layer 01
100
AcDbCircle
 10
-343.0
 20
0.0
 30
8.0124641114565
 40
355.0170435540999
210
0.0
220
1.0
230
0.0
100
AcDbArc
 50
180.0
 51
0.0
  0
LINE
  5
14A
330
70
100
AcDbEntity
  8
Layer 01
100
AcDbLine
 10
343.0
 20
7.6592735192
 30
-355.0170435540999
 11
343.0
 21
8.365654703713
 31
-355.0170435540999
  0
ARC
  5
14B
330
70
100
AcDbEntity
  8
Layer 01
100
AcDbCircle
 10
-343.0
 20
0.0
 30
8.0124641114565
 40
355.0170435540999
210
0.0
220
1.0
230
0.0
100
AcDbArc
 50
0.0
 51
180.0
  0
LINE
  5
14C
330
70
100
AcDbEntity
  8
Layer 01
100
AcDbLine
 10
343.0
 20
7.6592735192
 30
355.0170435540999
 11
343.0
 21
8.365654703713
 31
355.0170435540999
  0
LINE
  5
14D
330
70
100
AcDbEntity
  8
Layer 01
100
AcDbLine
 10
343.0
 20
7.659273519216995
 30
355.0170435541486
 11
343.0
 21
0.0000000000151914
 31
358.0000000000388
  0
LINE
  5
14E
330
70
100
AcDbEntity
  8
Layer 01
100
AcDbLine
 10
343.0
 20
7.659273519216995
 30
-355.0170435541486
 11
343.0
 21
0.0000000000151914
 31
-358.0000000000388
  0
LINE
  5
14F
330
70
100
AcDbEntity
  8
Layer 01
100
AcDbLine
 10
-16.25
 20
0.0
 30
0.0
 11
-15.0
 21
0.0
 31
0.0
  0
LINE
  5
150
330
70
100
AcDbEntity
  8
Layer 01
100
AcDbLine
 10
701.0
 20
0.0
 30
0.0
 11
702.25
 21
0.0
 31
0.0
  0
LINE
  5
151
330
70
100
AcDbEntity
  8
Layer 01
100
AcDbLine
 10
343.0
 20
0.0
 30
359.2500000000001
 11
343.0
 21
0.0
 31
358.0
  0
LINE
  5
152
330
70
100
AcDbEntity
  8
Layer 01
100
AcDbLine
 10
343.0
 20
0.0
 30
-358.0000000000001
 11
343.0
 21
0.0
 31
-359.25
  0
ARC
  5
153
330
70
100
AcDbEntity
  8
Layer 01
100
AcDbCircle
 10
0.5
 20
-359.25
 30
343.0
 40
0.5
210
1.0
220
0.0
230
0.0
100
AcDbArc
 50
270.0
 51
279.4968663040134
  0
ARC
  5
154
330
70
100
AcDbEntity
  8
Layer 01
100
AcDbCircle
 10
0.5
 20
-359.25
 30
343.0
 40
0.5
210
1.0
220
0.0
230
0.0
100
AcDbArc
 50
180.0
 51
270.0
  0
ARC
  5
155
330
70
100
AcDbEntity
  8
Layer 01
100
AcDbCircle
 10
-0.5
 20
359.25
 30
-343.0
 40
0.5
210
-1.0
220
0.0
230
0.0
100
AcDbArc
 50
0.0
 51
89.99999999999999
  0
ARC
  5
156
330
70
100
AcDbEntity
  8
Layer 01
100
AcDbCircle
 10
-0.5
 20
359.25
 30
-343.0
 40
0.5
210
-1.0
220
0.0
230
0.0
100
AcDbArc
 50
90.0
 51
99.49686630401311
  0
ARC
  5
157
330
70
100
AcDbEntity
  8
Layer 01
100
AcDbCircle
 10
343.0
 20
0.0
 30
-18.19871355869532
 40
356.7961941055992
210
0.0
220
-1.0
230
0.0
100
AcDbArc
 50
0.0
 51
180.0
  0
LINE
  5
158
330
70
100
AcDbEntity
  8
Layer 01
100
AcDbLine
 10
343.0
 20
35.81493028619693
 30
353.8492408976817
 11
343.0
 21
0.5824968311911376
 31
359.7431473135171
  0
ARC
  5
159
330
70
100
AcDbEntity
  8
Layer 01
100
AcDbCircle
 10
343.0
 20
0.0
 30
-18.19871355869532
 40
356.7961941055992
210
0.0
220
-1.0
230
0.0
100
AcDbArc
 50
180.0
 51
0.0
  0
LINE
  5
15A
330
70
100
AcDbEntity
  8
Layer 01
100
AcDbLine
 10
343.0
 20
35.81493028619693
 30
-353.8492408976817
 11
343.0
 21
0.5824968311911376
 31
-359.7431473135171
  0
ENDBLK
  5
15C
330
70
100
AcDbEntity
  8
0
100
AcDbBlockEnd
  0
BLOCK
  5
2F5
330
15E
100
AcDbEntity
  8
0
100
AcDbBlockBegin
  2
D8107215_FOND-ROSONE-720
 70
     0
 10
0.0
 20
0.0
 30
0.0
  3
D8107215_FOND-ROSONE-720
  1

  0
ARC
  5
15F
330
15E
100
AcDbEntity
  8
Layer 01
100
AcDbCircle
 10
0.0
 20
0.0
 30
-50.0
 40
105.0
210
0.0
220
-1.0
230
0.0
100
AcDbArc
 50
0.000000000000007
 51
180.0
  0
ARC
  5
160
330
15E
100
AcDbEntity
  8
Layer 01
100
AcDbCircle
 10
105.0
 20
40.00000000003754
 30
-0.0000000000000164
 40
9.999999999962462
100
AcDbArc
 50
7.018511865768156
 51
90.0
  0
ARC
  5
161
330
15E
100
AcDbEntity
  8
Layer 01
100
AcDbCircle
 10
0.0
 20
0.0
 30
41.22190021764
 40
114.925067247
210
0.0
220
1.0
230
0.0
100
AcDbArc
 50
0.0
 51
180.0
  0
ARC
  5
162
330
15E
100
AcDbEntity
  8
Layer 01
100
AcDbCircle
 10
-105.0
 20
40.00000000003754
 30
0.0
 40
9.999999999962462
100
AcDbArc
 50
90.0
 51
172.9814881342319
  0
ARC
  5
163
330
15E
100
AcDbEntity
  8
Layer 01
100
AcDbCircle
 10
0.0
 20
0.0
 30
41.22190021764
 40
114.925067247
210
0.0
220
1.0
230
0.0
100
AcDbArc
 50
180.0
 51
0.0
  0
ARC
  5
164
330
15E
100
AcDbEntity
  8
Layer 01
100
AcDbCircle
 10
0.0
 20
0.0
 30
-50.0
 40
105.0
210
0.0
220
-1.0
230
0.0
100
AcDbArc
 50
180.0
 51
0.0
  0
SPLINE
  5
165
330
15E
100
AcDbEntity
  8
Layer 01
100
AcDbSpline
210
0.0
220
0.0
230
1.0
 70
    24
 71
     2
 72
     6
 73
     3
 74
     0
 42
0.000000001
 43
0.0000000001
 40
-41.53311931459689
 40
-41.53311931459689
 40
-41.53311931459689
 40
0.0
 40
0.0
 40
0.0
 10
-120.0
 20
0.0
 30
0.0
 10
-117.4625336235
 20
20.61095010882
 30
0.0
 10
-114.925067247
 20
41.22190021764
 30
0.0
  0
ARC
  5
166
330
15E
100
AcDbEntity
  8
Layer 01
100
AcDbCircle
 10
0.0
 20
0.0
 30
0.0
 40
120.0
210
0.0
220
1.0
230
0.0
100
AcDbArc
 50
180.0
 51
0.0
  0
SPLINE
  5
167
330
15E
100
AcDbEntity
  8
Layer 01
100
AcDbSpline
210
0.0
220
0.0
230
1.0
 70
    24
 71
     2
 72
     6
 73
     3
 74
     0
 42
0.000000001
 43
0.0000000001
 40
-41.53311931459689
 40
-41.53311931459689
 40
-41.53311931459689
 40
0.0
 40
0.0
 40
0.0
 10
114.925067247
 20
41.22190021764
 30
-0.0000000000000185
 10
117.4625336235
 20
20.61095010882
 30
-0.0000000000000092
 10
120.0
 20
0.0
 30
0.0
  0
ARC
  5
168
330
15E
100
AcDbEntity
  8
Layer 01
100
AcDbCircle
 10
0.0
 20
0.0
 30
0.0
 40
120.0
210
0.0
220
1.0
230
0.0
100
AcDbArc
 50
0.0
 51
180.0
  0
SPLINE
  5
169
330
15E
100
AcDbEntity
  8
Layer 01
100
AcDbSpline
210
0.0
220
0.0
230
1.0
 70
    24
 71
     2
 72
     6
 73
     3
 74
     0
 42
0.000000001
 43
0.0000000001
 40
-1.500000000044637
 40
-1.500000000044637
 40
-1.500000000044637
 40
0.0
 40
0.0
 40
0.0
 10
-120.0
 20
0.0
 30
0.0
 10
-119.25561995645
 20
-0.0916425163228
 30
0.0
 10
-118.5112399129
 20
-0.1832850326456
 30
0.0
  0
SPLINE
  5
16A
330
15E
100
AcDbEntity
  8
Layer 01
100
AcDbSpline
210
0.0
220
0.0
230
1.0
 70
    24
 71
     2
 72
     6
 73
     3
 74
     0
 42
0.000000001
 43
0.0000000001
 40
-1.500000000044637
 40
-1.500000000044637
 40
-1.500000000044637
 40
0.0
 40
0.0
 40
0.0
 10
118.5112399129
 20
-0.1832850326456
 30
-0.0000000000000132
 10
119.25561995645
 20
-0.0916425163228
 30
-0.0000000000000066
 10
120.0
 20
0.0
 30
0.0
  0
ARC
  5
16B
330
15E
100
AcDbEntity
  8
Layer 01
100
AcDbCircle
 10
0.0
 20
0.0
 30
-0.1832850326456
 40
118.5112399129
210
1.171010261812631E-19
220
1.0
230
0.0
100
AcDbArc
 50
0.0
 51
180.0
  0
ARC
  5
16C
330
15E
100
AcDbEntity
  8
Layer 01
100
AcDbCircle
 10
0.0
 20
0.0
 30
-0.1832850326456
 40
118.5112399129
210
0.0
220
1.0
230
0.0
100
AcDbArc
 50
180.0
 51
0.0
  0
SPLINE
  5
16D
330
15E
100
AcDbEntity
  8
Layer 01
100
AcDbSpline
210
0.0
220
0.0
230
1.0
 70
    24
 71
     2
 72
     6
 73
     3
 74
     0
 42
0.000000001
 43
0.0000000001
 40
0.0
 40
0.0
 40
0.0
 40
41.5331193145803
 40
41.5331193145803
 40
41.5331193145803
 10
-118.5112399129
 20
-0.1832850326456
 30
0.0
 10
-115.97377353645
 20
20.4276650761722
 30
0.0
 10
-113.43630716
 20
41.03861518499
 30
0.0
  0
ARC
  5
16E
330
15E
100
AcDbEntity
  8
Layer 01
100
AcDbCircle
 10
0.0
 20
0.0
 30
-41.03861518499
 40
113.43630716
210
0.0
220
-1.0
230
0.0
100
AcDbArc
 50
180.0
 51
0.0
  0
SPLINE
  5
16F
330
15E
100
AcDbEntity
  8
Layer 01
100
AcDbSpline
210
0.0
220
0.0
230
1.0
 70
    24
 71
     2
 72
     6
 73
     3
 74
     0
 42
0.000000001
 43
0.0000000001
 40
0.0
 40
0.0
 40
0.0
 40
41.5331193145803
 40
41.5331193145803
 40
41.5331193145803
 10
113.43630716
 20
41.03861518499
 30
0.0
 10
115.97377353645
 20
20.4276650761722
 30
-0.0000000000000066
 10
118.5112399129
 20
-0.1832850326456
 30
-0.0000000000000132
  0
ARC
  5
170
330
15E
100
AcDbEntity
  8
Layer 01
100
AcDbCircle
 10
0.0
 20
0.0
 30
-41.03861518499
 40
113.43630716
210
0.0
220
-1.0
230
0.0
100
AcDbArc
 50
0.000000000000007
 51
180.0
  0
ARC
  5
171
330
15E
100
AcDbEntity
  8
Layer 01
100
AcDbCircle
 10
105.0
 20
39.99999999997593
 30
0.0000000000000047
 40
8.500000000024066
100
AcDbArc
 50
7.018511866074699
 51
90.0
  0
ARC
  5
172
330
15E
100
AcDbEntity
  8
Layer 01
100
AcDbCircle
 10
0.0
 20
0.0
 30
-48.5
 40
105.0
210
0.0
220
-1.0
230
0.0
100
AcDbArc
 50
0.000000000000007
 51
180.0
  0
ARC
  5
173
330
15E
100
AcDbEntity
  8
Layer 01
100
AcDbCircle
 10
-105.0
 20
39.99999999997593
 30
0.0
 40
8.500000000024066
100
AcDbArc
 50
90.0
 51
172.9814881339253
  0
ARC
  5
174
330
15E
100
AcDbEntity
  8
Layer 01
100
AcDbCircle
 10
0.0
 20
0.0
 30
-48.5
 40
105.0
210
0.0
220
-1.0
230
0.0
100
AcDbArc
 50
180.0
 51
0.0
  0
ARC
  5
175
330
15E
100
AcDbEntity
  8
Layer 01
100
AcDbCircle
 10
100.0
 20
0.0
 30
50.0
 40
1.299999999999997
210
0.0
220
1.0
230
0.0
100
AcDbArc
 50
0.000000000000007
 51
180.0
  0
SPLINE
  5
176
330
15E
100
AcDbEntity
  8
Layer 01
100
AcDbSpline
210
0.0
220
0.0
230
1.0
 70
    24
 71
     2
 72
     6
 73
     3
 74
     0
 42
0.000000001
 43
0.0000000001
 40
0.0
 40
0.0
 40
0.0
 40
1.5
 40
1.5
 40
1.5
 10
-101.3
 20
50.0
 30
0.0
 10
-101.3
 20
49.25
 30
0.0
 10
-101.3
 20
48.5
 30
0.0
  0
ARC
  5
177
330
15E
100
AcDbEntity
  8
Layer 01
100
AcDbCircle
 10
100.0
 20
0.0
 30
48.5
 40
1.299999999999997
210
0.0
220
1.0
230
0.0
100
AcDbArc
 50
0.000000000000007
 51
180.0
  0
SPLINE
  5
178
330
15E
100
AcDbEntity
  8
Layer 01
100
AcDbSpline
210
0.0
220
0.0
230
1.0
 70
    24
 71
     2
 72
     6
 73
     3
 74
     0
 42
0.000000001
 43
0.0000000001
 40
0.0
 40
0.0
 40
0.0
 40
1.5
 40
1.5
 40
1.5
 10
-98.7
 20
48.5
 30
0.0
 10
-98.7
 20
49.25
 30
0.0
 10
-98.7
 20
50.0
 30
0.0
  0
ARC
  5
179
330
15E
100
AcDbEntity
  8
Layer 01
100
AcDbCircle
 10
100.0
 20
0.0
 30
50.0
 40
1.3
210
0.0
220
1.0
230
0.0
100
AcDbArc
 50
180.0
 51
0.0
  0
ARC
  5
17A
330
15E
100
AcDbEntity
  8
Layer 01
100
AcDbCircle
 10
100.0
 20
0.0
 30
48.5
 40
1.3
210
0.0
220
1.0
230
0.0
100
AcDbArc
 50
180.0
 51
0.0
  0
ARC
  5
17B
330
15E
100
AcDbEntity
  8
Layer 01
100
AcDbCircle
 10
99.45218953681498
 20
-10.45284632677
 30
50.0
 40
1.299999999985005
210
0.0
220
1.0
230
0.0
100
AcDbArc
 50
0.0
 51
180.0
  0
SPLINE
  5
17C
330
15E
100
AcDbEntity
  8
Layer 01
100
AcDbSpline
210
0.0
220
0.0
230
1.0
 70
    24
 71
     2
 72
     6
 73
     3
 74
     0
 42
0.000000001
 43
0.0000000001
 40
0.0
 40
0.0
 40
0.0
 40
1.5
 40
1.5
 40
1.5
 10
-100.7521895368
 20
50.0
 30
-10.45284632677
 10
-100.7521895368
 20
49.25
 30
-10.45284632677
 10
-100.7521895368
 20
48.5
 30
-10.45284632677
  0
ARC
  5
17D
330
15E
100
AcDbEntity
  8
Layer 01
100
AcDbCircle
 10
99.45218953681498
 20
-10.45284632677
 30
48.5
 40
1.299999999985005
210
0.0
220
1.0
230
0.0
100
AcDbArc
 50
0.0
 51
180.0
  0
SPLINE
  5
17E
330
15E
100
AcDbEntity
  8
Layer 01
100
AcDbSpline
210
0.0
220
0.0
230
1.0
 70
    24
 71
     2
 72
     6
 73
     3
 74
     0
 42
0.000000001
 43
0.0000000001
 40
0.0
 40
0.0
 40
0.0
 40
1.5
 40
1.5
 40
1.5
 10
-98.15218953682998
 20
48.5
 30
-10.45284632677
 10
-98.15218953682998
 20
49.25
 30
-10.45284632677
 10
-98.15218953682998
 20
50.0
 30
-10.45284632677
  0
ARC
  5
17F
330
15E
100
AcDbEntity
  8
Layer 01
100
AcDbCircle
 10
99.452189536815
 20
-10.45284632677
 30
50.0
 40
1.299999999985019
210
0.0
220
1.0
230
0.0
100
AcDbArc
 50
180.0
 51
0.0
  0
ARC
  5
180
330
15E
100
AcDbEntity
  8
Layer 01
100
AcDbCircle
 10
99.452189536815
 20
-10.45284632677
 30
48.5
 40
1.299999999985019
210
0.0
220
1.0
230
0.0
100
AcDbArc
 50
180.0
 51
0.0
  0
ARC
  5
181
330
15E
100
AcDbEntity
  8
Layer 01
100
AcDbCircle
 10
-49.99999999999999
 20
-86.60254037844001
 30
50.0
 40
1.300000000000206
210
0.0
220
1.0
230
0.0
100
AcDbArc
 50
240.0000000000045
 51
60.00000000000567
  0
SPLINE
  5
182
330
15E
100
AcDbEntity
  8
Layer 01
100
AcDbSpline
210
0.0
220
0.0
230
1.0
 70
    24
 71
     2
 72
     6
 73
     3
 74
     0
 42
0.000000001
 43
0.0000000001
 40
0.0
 40
0.0
 40
0.0
 40
1.5
 40
1.5
 40
1.5
 10
50.65000000000001
 20
50.0
 30
-87.72837340336002
 10
50.65000000000001
 20
49.25
 30
-87.72837340336002
 10
50.65000000000001
 20
48.5
 30
-87.72837340336002
  0
ARC
  5
183
330
15E
100
AcDbEntity
  8
Layer 01
100
AcDbCircle
 10
-49.99999999999999
 20
-86.60254037844001
 30
48.5
 40
1.300000000000206
210
0.0
220
1.0
230
0.0
100
AcDbArc
 50
240.0000000000045
 51
60.00000000000567
  0
SPLINE
  5
184
330
15E
100
AcDbEntity
  8
Layer 01
100
AcDbSpline
210
0.0
220
0.0
230
1.0
 70
    24
 71
     2
 72
     6
 73
     3
 74
     0
 42
0.000000001
 43
0.0000000001
 40
0.0
 40
0.0
 40
0.0
 40
1.5
 40
1.5
 40
1.5
 10
49.34999999999999
 20
48.5
 30
-85.47670735352
 10
49.34999999999999
 20
49.25
 30
-85.47670735352
 10
49.34999999999999
 20
50.0
 30
-85.47670735352
  0
ARC
  5
185
330
15E
100
AcDbEntity
  8
Layer 01
100
AcDbCircle
 10
-50.0
 20
-86.60254037844
 30
50.0
 40
1.300000000000197
210
0.0
220
1.0
230
0.0
100
AcDbArc
 50
60.00000000000481
 51
240.0000000000051
  0
ARC
  5
186
330
15E
100
AcDbEntity
  8
Layer 01
100
AcDbCircle
 10
-50.0
 20
-86.60254037844
 30
48.5
 40
1.300000000000197
210
0.0
220
1.0
230
0.0
100
AcDbArc
 50
60.00000000000481
 51
240.0000000000051
  0
ARC
  5
187
330
15E
100
AcDbEntity
  8
Layer 01
100
AcDbCircle
 10
-58.77852522924999
 20
-80.90169943748998
 30
50.0
 40
1.300000000000209
210
0.0
220
1.0
230
0.0
100
AcDbArc
 50
240.0000000000051
 51
60.0000000000054
  0
ARC
  5
188
330
15E
100
AcDbEntity
  8
Layer 01
100
AcDbCircle
 10
-58.77852522924999
 20
-80.90169943748998
 30
48.5
 40
1.300000000000209
210
0.0
220
1.0
230
0.0
100
AcDbArc
 50
240.0000000000051
 51
60.0000000000054
  0
SPLINE
  5
189
330
15E
100
AcDbEntity
  8
Layer 01
100
AcDbSpline
210
0.0
220
0.0
230
1.0
 70
    24
 71
     2
 72
     6
 73
     3
 74
     0
 42
0.000000001
 43
0.0000000001
 40
0.0
 40
0.0
 40
0.0
 40
1.5
 40
1.5
 40
1.5
 10
58.12852522924999
 20
48.5
 30
-79.77586641256998
 10
58.12852522924999
 20
49.25
 30
-79.77586641256998
 10
58.12852522924999
 20
50.0
 30
-79.77586641256998
  0
ARC
  5
18A
330
15E
100
AcDbEntity
  8
Layer 01
100
AcDbCircle
 10
-58.77852522924999
 20
-80.90169943748998
 30
50.0
 40
1.300000000000185
210
0.0
220
1.0
230
0.0
100
AcDbArc
 50
60.00000000000504
 51
240.0000000000048
  0
ARC
  5
18B
330
15E
100
AcDbEntity
  8
Layer 01
100
AcDbCircle
 10
-58.77852522924999
 20
-80.90169943748998
 30
48.5
 40
1.300000000000185
210
0.0
220
1.0
230
0.0
100
AcDbArc
 50
60.00000000000504
 51
240.0000000000048
  0
SPLINE
  5
18C
330
15E
100
AcDbEntity
  8
Layer 01
100
AcDbSpline
210
0.0
220
0.0
230
1.0
 70
    24
 71
     2
 72
     6
 73
     3
 74
     0
 42
0.000000001
 43
0.0000000001
 40
0.0
 40
0.0
 40
0.0
 40
1.5
 40
1.5
 40
1.5
 10
59.42852522924998
 20
48.5
 30
-82.02753246240998
 10
59.42852522924998
 20
49.25
 30
-82.02753246240998
 10
59.42852522924998
 20
50.0
 30
-82.02753246240998
  0
ARC
  5
18D
330
15E
100
AcDbEntity
  8
Layer 01
100
AcDbCircle
 10
-49.99999999999999
 20
86.60254037844
 30
50.0
 40
1.300000000000194
210
0.0
220
1.0
230
0.0
100
AcDbArc
 50
119.999999999996
 51
299.9999999999946
  0
SPLINE
  5
18E
330
15E
100
AcDbEntity
  8
Layer 01
100
AcDbSpline
210
0.0
220
0.0
230
1.0
 70
    24
 71
     2
 72
     6
 73
     3
 74
     0
 42
0.000000001
 43
0.0000000001
 40
0.0
 40
0.0
 40
0.0
 40
1.5
 40
1.5
 40
1.5
 10
50.65000000000001
 20
50.0
 30
87.72837340335998
 10
50.65000000000001
 20
49.25
 30
87.72837340335998
 10
50.65000000000001
 20
48.5
 30
87.72837340335998
  0
ARC
  5
18F
330
15E
100
AcDbEntity
  8
Layer 01
100
AcDbCircle
 10
-49.99999999999999
 20
86.60254037844
 30
48.5
 40
1.300000000000194
210
0.0
220
1.0
230
0.0
100
AcDbArc
 50
119.999999999996
 51
299.9999999999946
  0
SPLINE
  5
190
330
15E
100
AcDbEntity
  8
Layer 01
100
AcDbSpline
210
0.0
220
0.0
230
1.0
 70
    24
 71
     2
 72
     6
 73
     3
 74
     0
 42
0.000000001
 43
0.0000000001
 40
0.0
 40
0.0
 40
0.0
 40
1.5
 40
1.5
 40
1.5
 10
49.35
 20
48.5
 30
85.47670735352
 10
49.35
 20
49.25
 30
85.47670735352
 10
49.35
 20
50.0
 30
85.47670735352
  0
ARC
  5
191
330
15E
100
AcDbEntity
  8
Layer 01
100
AcDbCircle
 10
-50.00000000000001
 20
86.60254037843998
 30
50.0
 40
1.300000000000206
210
0.0
220
1.0
230
0.0
100
AcDbArc
 50
299.9999999999954
 51
119.9999999999943
  0
ARC
  5
192
330
15E
100
AcDbEntity
  8
Layer 01
100
AcDbCircle
 10
-50.00000000000001
 20
86.60254037843998
 30
48.5
 40
1.300000000000206
210
0.0
220
1.0
230
0.0
100
AcDbArc
 50
299.9999999999954
 51
119.9999999999943
  0
ARC
  5
193
330
15E
100
AcDbEntity
  8
Layer 01
100
AcDbCircle
 10
-40.67366430757999
 20
91.35454576426
 30
50.0
 40
1.300000000000197
210
0.0
220
1.0
230
0.0
100
AcDbArc
 50
119.9999999999958
 51
299.9999999999949
  0
SPLINE
  5
194
330
15E
100
AcDbEntity
  8
Layer 01
100
AcDbSpline
210
0.0
220
0.0
230
1.0
 70
    24
 71
     2
 72
     6
 73
     3
 74
     0
 42
0.000000001
 43
0.0000000001
 40
0.0
 40
0.0
 40
0.0
 40
1.5
 40
1.5
 40
1.5
 10
41.32366430758
 20
50.0
 30
92.48037878917998
 10
41.32366430758
 20
49.25
 30
92.48037878917998
 10
41.32366430758
 20
48.5
 30
92.48037878917998
  0
ARC
  5
195
330
15E
100
AcDbEntity
  8
Layer 01
100
AcDbCircle
 10
-40.67366430757999
 20
91.35454576426
 30
48.5
 40
1.300000000000197
210
0.0
220
1.0
230
0.0
100
AcDbArc
 50
119.9999999999958
 51
299.9999999999949
  0
SPLINE
  5
196
330
15E
100
AcDbEntity
  8
Layer 01
100
AcDbSpline
210
0.0
220
0.0
230
1.0
 70
    24
 71
     2
 72
     6
 73
     3
 74
     0
 42
0.000000001
 43
0.0000000001
 40
0.0
 40
0.0
 40
0.0
 40
1.5
 40
1.5
 40
1.5
 10
40.02366430757999
 20
48.5
 30
90.22871273934
 10
40.02366430757999
 20
49.25
 30
90.22871273934
 10
40.02366430757999
 20
50.0
 30
90.22871273934
  0
ARC
  5
197
330
15E
100
AcDbEntity
  8
Layer 01
100
AcDbCircle
 10
-40.67366430758
 20
91.35454576425998
 30
50.0
 40
1.300000000000213
210
0.0
220
1.0
230
0.0
100
AcDbArc
 50
299.9999999999957
 51
119.9999999999949
  0
ARC
  5
198
330
15E
100
AcDbEntity
  8
Layer 01
100
AcDbCircle
 10
-40.67366430758
 20
91.35454576425998
 30
48.5
 40
1.300000000000213
210
0.0
220
1.0
230
0.0
100
AcDbArc
 50
299.9999999999957
 51
119.9999999999949
  0
ARC
  5
199
330
15E
100
AcDbEntity
  8
Layer 01
100
AcDbCircle
 10
52.0
 20
-85.0
 30
50.0
 40
1.3
210
0.0
220
1.0
230
0.0
100
AcDbArc
 50
90.0
 51
270.0
  0
SPLINE
  5
19A
330
15E
100
AcDbEntity
  8
Layer 01
100
AcDbSpline
210
0.0
220
0.0
230
1.0
 70
    24
 71
     2
 72
     6
 73
     3
 74
     0
 42
0.000000001
 43
0.0000000001
 40
0.0
 40
0.0
 40
0.0
 40
1.5
 40
1.5
 40
1.5
 10
-52.0
 20
50.0
 30
-83.7
 10
-52.0
 20
49.25
 30
-83.7
 10
-52.0
 20
48.5
 30
-83.7
  0
ARC
  5
19B
330
15E
100
AcDbEntity
  8
Layer 01
100
AcDbCircle
 10
52.0
 20
-85.0
 30
48.5
 40
1.3
210
0.0
220
1.0
230
0.0
100
AcDbArc
 50
90.0
 51
270.0
  0
SPLINE
  5
19C
330
15E
100
AcDbEntity
  8
Layer 01
100
AcDbSpline
210
0.0
220
0.0
230
1.0
 70
    24
 71
     2
 72
     6
 73
     3
 74
     0
 42
0.000000001
 43
0.0000000001
 40
0.0
 40
0.0
 40
0.0
 40
1.5
 40
1.5
 40
1.5
 10
-52.0
 20
48.5
 30
-86.29999999999998
 10
-52.0
 20
49.25
 30
-86.29999999999998
 10
-52.0
 20
50.0
 30
-86.29999999999998
  0
ARC
  5
19D
330
15E
100
AcDbEntity
  8
Layer 01
100
AcDbCircle
 10
52.0
 20
-85.0
 30
50.0
 40
1.299999999999997
210
0.0
220
1.0
230
0.0
100
AcDbArc
 50
270.0
 51
90.0
  0
ARC
  5
19E
330
15E
100
AcDbEntity
  8
Layer 01
100
AcDbCircle
 10
52.0
 20
-85.0
 30
48.5
 40
1.299999999999997
210
0.0
220
1.0
230
0.0
100
AcDbArc
 50
270.0
 51
90.0
  0
ARC
  5
19F
330
15E
100
AcDbEntity
  8
Layer 01
100
AcDbCircle
 10
18.0
 20
86.0
 30
50.0
 40
1.299999999999997
210
0.0
220
1.0
230
0.0
100
AcDbArc
 50
90.0
 51
270.0
  0
SPLINE
  5
1A0
330
15E
100
AcDbEntity
  8
Layer 01
100
AcDbSpline
210
0.0
220
0.0
230
1.0
 70
    24
 71
     2
 72
     6
 73
     3
 74
     0
 42
0.000000001
 43
0.0000000001
 40
0.0
 40
0.0
 40
0.0
 40
1.5
 40
1.5
 40
1.5
 10
-18.0
 20
50.0
 30
87.29999999999998
 10
-18.0
 20
49.25
 30
87.29999999999998
 10
-18.0
 20
48.5
 30
87.29999999999998
  0
ARC
  5
1A1
330
15E
100
AcDbEntity
  8
Layer 01
100
AcDbCircle
 10
18.0
 20
86.0
 30
48.5
 40
1.299999999999997
210
0.0
220
1.0
230
0.0
100
AcDbArc
 50
90.0
 51
270.0
  0
SPLINE
  5
1A2
330
15E
100
AcDbEntity
  8
Layer 01
100
AcDbSpline
210
0.0
220
0.0
230
1.0
 70
    24
 71
     2
 72
     6
 73
     3
 74
     0
 42
0.000000001
 43
0.0000000001
 40
0.0
 40
0.0
 40
0.0
 40
1.5
 40
1.5
 40
1.5
 10
-18.0
 20
48.5
 30
84.7
 10
-18.0
 20
49.25
 30
84.7
 10
-18.0
 20
50.0
 30
84.7
  0
ARC
  5
1A3
330
15E
100
AcDbEntity
  8
Layer 01
100
AcDbCircle
 10
18.0
 20
86.0
 30
50.0
 40
1.3
210
0.0
220
1.0
230
0.0
100
AcDbArc
 50
270.0
 51
90.0
  0
ARC
  5
1A4
330
15E
100
AcDbEntity
  8
Layer 01
100
AcDbCircle
 10
18.0
 20
86.0
 30
48.5
 40
1.3
210
0.0
220
1.0
230
0.0
100
AcDbArc
 50
270.0
 51
90.0
  0
ARC
  5
1A5
330
15E
100
AcDbEntity
  8
Layer 01
100
AcDbCircle
 10
2.0
 20
-60.0
 30
50.0
 40
1.3
210
0.0
220
1.0
230
0.0
100
AcDbArc
 50
0.0
 51
180.0
  0
SPLINE
  5
1A6
330
15E
100
AcDbEntity
  8
Layer 01
100
AcDbSpline
210
0.0
220
0.0
230
1.0
 70
    24
 71
     2
 72
     6
 73
     3
 74
     0
 42
0.000000001
 43
0.0000000001
 40
0.0
 40
0.0
 40
0.0
 40
1.5
 40
1.5
 40
1.5
 10
-3.299999999999999
 20
50.0
 30
-60.0
 10
-3.299999999999999
 20
49.25
 30
-60.0
 10
-3.299999999999999
 20
48.5
 30
-60.0
  0
ARC
  5
1A7
330
15E
100
AcDbEntity
  8
Layer 01
100
AcDbCircle
 10
2.0
 20
-60.0
 30
48.5
 40
1.3
210
0.0
220
1.0
230
0.0
100
AcDbArc
 50
0.0
 51
180.0
  0
SPLINE
  5
1A8
330
15E
100
AcDbEntity
  8
Layer 01
100
AcDbSpline
210
0.0
220
0.0
230
1.0
 70
    24
 71
     2
 72
     6
 73
     3
 74
     0
 42
0.000000001
 43
0.0000000001
 40
0.0
 40
0.0
 40
0.0
 40
1.5
 40
1.5
 40
1.5
 10
-0.6999999999999998
 20
48.5
 30
-60.0
 10
-0.6999999999999998
 20
49.25
 30
-60.0
 10
-0.6999999999999998
 20
50.0
 30
-60.0
  0
ARC
  5
1A9
330
15E
100
AcDbEntity
  8
Layer 01
100
AcDbCircle
 10
2.0
 20
-60.0
 30
50.0
 40
1.3
210
0.0
220
1.0
230
0.0
100
AcDbArc
 50
180.0
 51
0.0
  0
ARC
  5
1AA
330
15E
100
AcDbEntity
  8
Layer 01
100
AcDbCircle
 10
2.0
 20
-60.0
 30
48.5
 40
1.3
210
0.0
220
1.0
230
0.0
100
AcDbArc
 50
180.0
 51
0.0
  0
ARC
  5
1AB
330
15E
100
AcDbEntity
  8
Layer 01
100
AcDbCircle
 10
-28.0
 20
-60.0
 30
50.0
 40
1.300000000000001
210
0.0
220
1.0
230
0.0
100
AcDbArc
 50
0.0
 51
180.0
  0
SPLINE
  5
1AC
330
15E
100
AcDbEntity
  8
Layer 01
100
AcDbSpline
210
0.0
220
0.0
230
1.0
 70
    24
 71
     2
 72
     6
 73
     3
 74
     0
 42
0.000000001
 43
0.0000000001
 40
0.0
 40
0.0
 40
0.0
 40
1.5
 40
1.5
 40
1.5
 10
26.7
 20
50.0
 30
-60.0
 10
26.7
 20
49.25
 30
-60.0
 10
26.7
 20
48.5
 30
-60.0
  0
ARC
  5
1AD
330
15E
100
AcDbEntity
  8
Layer 01
100
AcDbCircle
 10
-28.0
 20
-60.0
 30
48.5
 40
1.300000000000001
210
0.0
220
1.0
230
0.0
100
AcDbArc
 50
0.0
 51
180.0
  0
SPLINE
  5
1AE
330
15E
100
AcDbEntity
  8
Layer 01
100
AcDbSpline
210
0.0
220
0.0
230
1.0
 70
    24
 71
     2
 72
     6
 73
     3
 74
     0
 42
0.000000001
 43
0.0000000001
 40
0.0
 40
0.0
 40
0.0
 40
1.5
 40
1.5
 40
1.5
 10
29.3
 20
48.5
 30
-60.0
 10
29.3
 20
49.25
 30
-60.0
 10
29.3
 20
50.0
 30
-60.0
  0
ARC
  5
1AF
330
15E
100
AcDbEntity
  8
Layer 01
100
AcDbCircle
 10
-28.0
 20
-60.0
 30
50.0
 40
1.3
210
0.0
220
1.0
230
0.0
100
AcDbArc
 50
180.0
 51
0.0
  0
ARC
  5
1B0
330
15E
100
AcDbEntity
  8
Layer 01
100
AcDbCircle
 10
-28.0
 20
-60.0
 30
48.5
 40
1.3
210
0.0
220
1.0
230
0.0
100
AcDbArc
 50
180.0
 51
0.0
  0
ARC
  5
1B1
330
15E
100
AcDbEntity
  8
Layer 01
100
AcDbCircle
 10
2.0
 20
60.0
 30
50.0
 40
1.3
210
0.0
220
1.0
230
0.0
100
AcDbArc
 50
0.0
 51
180.0
  0
SPLINE
  5
1B2
330
15E
100
AcDbEntity
  8
Layer 01
100
AcDbSpline
210
0.0
220
0.0
230
1.0
 70
    24
 71
     2
 72
     6
 73
     3
 74
     0
 42
0.000000001
 43
0.0000000001
 40
0.0
 40
0.0
 40
0.0
 40
1.5
 40
1.5
 40
1.5
 10
-3.299999999999999
 20
50.0
 30
60.0
 10
-3.299999999999999
 20
49.25
 30
60.0
 10
-3.299999999999999
 20
48.5
 30
60.0
  0
ARC
  5
1B3
330
15E
100
AcDbEntity
  8
Layer 01
100
AcDbCircle
 10
2.0
 20
60.0
 30
48.5
 40
1.3
210
0.0
220
1.0
230
0.0
100
AcDbArc
 50
0.0
 51
180.0
  0
SPLINE
  5
1B4
330
15E
100
AcDbEntity
  8
Layer 01
100
AcDbSpline
210
0.0
220
0.0
230
1.0
 70
    24
 71
     2
 72
     6
 73
     3
 74
     0
 42
0.000000001
 43
0.0000000001
 40
0.0
 40
0.0
 40
0.0
 40
1.5
 40
1.5
 40
1.5
 10
-0.6999999999999998
 20
48.5
 30
60.0
 10
-0.6999999999999998
 20
49.25
 30
60.0
 10
-0.6999999999999998
 20
50.0
 30
60.0
  0
ARC
  5
1B5
330
15E
100
AcDbEntity
  8
Layer 01
100
AcDbCircle
 10
2.0
 20
60.0
 30
50.0
 40
1.3
210
0.0
220
1.0
230
0.0
100
AcDbArc
 50
180.0
 51
0.0
  0
ARC
  5
1B6
330
15E
100
AcDbEntity
  8
Layer 01
100
AcDbCircle
 10
2.0
 20
60.0
 30
48.5
 40
1.3
210
0.0
220
1.0
230
0.0
100
AcDbArc
 50
180.0
 51
0.0
  0
ARC
  5
1B7
330
15E
100
AcDbEntity
  8
Layer 01
100
AcDbCircle
 10
8.0
 20
95.0
 30
50.0
 40
1.3
210
0.0
220
1.0
230
0.0
100
AcDbArc
 50
0.0
 51
180.0
  0
SPLINE
  5
1B8
330
15E
100
AcDbEntity
  8
Layer 01
100
AcDbSpline
210
0.0
220
0.0
230
1.0
 70
    24
 71
     2
 72
     6
 73
     3
 74
     0
 42
0.000000001
 43
0.0000000001
 40
0.0
 40
0.0
 40
0.0
 40
1.5
 40
1.5
 40
1.5
 10
-9.3
 20
50.0
 30
95.0
 10
-9.3
 20
49.25
 30
95.0
 10
-9.3
 20
48.5
 30
95.0
  0
ARC
  5
1B9
330
15E
100
AcDbEntity
  8
Layer 01
100
AcDbCircle
 10
8.0
 20
95.0
 30
48.5
 40
1.3
210
0.0
220
1.0
230
0.0
100
AcDbArc
 50
0.0
 51
180.0
  0
SPLINE
  5
1BA
330
15E
100
AcDbEntity
  8
Layer 01
100
AcDbSpline
210
0.0
220
0.0
230
1.0
 70
    24
 71
     2
 72
     6
 73
     3
 74
     0
 42
0.000000001
 43
0.0000000001
 40
0.0
 40
0.0
 40
0.0
 40
1.5
 40
1.5
 40
1.5
 10
-6.7
 20
48.5
 30
95.0
 10
-6.7
 20
49.25
 30
95.0
 10
-6.7
 20
50.0
 30
95.0
  0
ARC
  5
1BB
330
15E
100
AcDbEntity
  8
Layer 01
100
AcDbCircle
 10
8.0
 20
95.0
 30
50.0
 40
1.3
210
0.0
220
1.0
230
0.0
100
AcDbArc
 50
180.0
 51
0.0
  0
ARC
  5
1BC
330
15E
100
AcDbEntity
  8
Layer 01
100
AcDbCircle
 10
8.0
 20
95.0
 30
48.5
 40
1.3
210
0.0
220
1.0
230
0.0
100
AcDbArc
 50
180.0
 51
0.0
  0
ARC
  5
1BD
330
15E
100
AcDbEntity
  8
Layer 01
100
AcDbCircle
 10
-8.0
 20
95.0
 30
50.0
 40
1.3
210
0.0
220
1.0
230
0.0
100
AcDbArc
 50
0.0
 51
180.0
  0
SPLINE
  5
1BE
330
15E
100
AcDbEntity
  8
Layer 01
100
AcDbSpline
210
0.0
220
0.0
230
1.0
 70
    24
 71
     2
 72
     6
 73
     3
 74
     0
 42
0.000000001
 43
0.0000000001
 40
0.0
 40
0.0
 40
0.0
 40
1.5
 40
1.5
 40
1.5
 10
6.7
 20
50.0
 30
95.0
 10
6.7
 20
49.25
 30
95.0
 10
6.7
 20
48.5
 30
95.0
  0
ARC
  5
1BF
330
15E
100
AcDbEntity
  8
Layer 01
100
AcDbCircle
 10
-8.0
 20
95.0
 30
48.5
 40
1.3
210
0.0
220
1.0
230
0.0
100
AcDbArc
 50
0.0
 51
180.0
  0
SPLINE
  5
1C0
330
15E
100
AcDbEntity
  8
Layer 01
100
AcDbSpline
210
0.0
220
0.0
230
1.0
 70
    24
 71
     2
 72
     6
 73
     3
 74
     0
 42
0.000000001
 43
0.0000000001
 40
0.0
 40
0.0
 40
0.0
 40
1.5
 40
1.5
 40
1.5
 10
9.3
 20
48.5
 30
95.0
 10
9.3
 20
49.25
 30
95.0
 10
9.3
 20
50.0
 30
95.0
  0
ARC
  5
1C1
330
15E
100
AcDbEntity
  8
Layer 01
100
AcDbCircle
 10
-8.0
 20
95.0
 30
50.0
 40
1.3
210
0.0
220
1.0
230
0.0
100
AcDbArc
 50
180.0
 51
0.0
  0
ARC
  5
1C2
330
15E
100
AcDbEntity
  8
Layer 01
100
AcDbCircle
 10
-8.0
 20
95.0
 30
48.5
 40
1.3
210
0.0
220
1.0
230
0.0
100
AcDbArc
 50
180.0
 51
0.0
  0
ARC
  5
1C3
330
15E
100
AcDbEntity
  8
Layer 01
100
AcDbCircle
 10
7.0
 20
-82.0
 30
50.0
 40
1.3
210
0.0
220
1.0
230
0.0
100
AcDbArc
 50
0.0
 51
180.0
  0
SPLINE
  5
1C4
330
15E
100
AcDbEntity
  8
Layer 01
100
AcDbSpline
210
0.0
220
0.0
230
1.0
 70
    24
 71
     2
 72
     6
 73
     3
 74
     0
 42
0.000000001
 43
0.0000000001
 40
0.0
 40
0.0
 40
0.0
 40
1.5
 40
1.5
 40
1.5
 10
-8.3
 20
50.0
 30
-82.0
 10
-8.3
 20
49.25
 30
-82.0
 10
-8.3
 20
48.5
 30
-82.0
  0
ARC
  5
1C5
330
15E
100
AcDbEntity
  8
Layer 01
100
AcDbCircle
 10
7.0
 20
-82.0
 30
48.5
 40
1.3
210
0.0
220
1.0
230
0.0
100
AcDbArc
 50
0.0
 51
180.0
  0
SPLINE
  5
1C6
330
15E
100
AcDbEntity
  8
Layer 01
100
AcDbSpline
210
0.0
220
0.0
230
1.0
 70
    24
 71
     2
 72
     6
 73
     3
 74
     0
 42
0.000000001
 43
0.0000000001
 40
0.0
 40
0.0
 40
0.0
 40
1.5
 40
1.5
 40
1.5
 10
-5.7
 20
48.5
 30
-82.0
 10
-5.7
 20
49.25
 30
-82.0
 10
-5.7
 20
50.0
 30
-82.0
  0
ARC
  5
1C7
330
15E
100
AcDbEntity
  8
Layer 01
100
AcDbCircle
 10
7.0
 20
-82.0
 30
50.0
 40
1.3
210
0.0
220
1.0
230
0.0
100
AcDbArc
 50
180.0
 51
0.0
  0
ARC
  5
1C8
330
15E
100
AcDbEntity
  8
Layer 01
100
AcDbCircle
 10
7.0
 20
-82.0
 30
48.5
 40
1.3
210
0.0
220
1.0
230
0.0
100
AcDbArc
 50
180.0
 51
0.0
  0
ARC
  5
1C9
330
15E
100
AcDbEntity
  8
Layer 01
100
AcDbCircle
 10
0.0
 20
0.0
 30
50.0
 40
7.5
210
0.0
220
1.0
230
0.0
100
AcDbArc
 50
270.0
 51
90.0
  0
SPLINE
  5
1CA
330
15E
100
AcDbEntity
  8
Layer 01
100
AcDbSpline
210
0.0
220
0.0
230
1.0
 70
    24
 71
     2
 72
     6
 73
     3
 74
     0
 42
0.000000001
 43
0.0000000001
 40
0.0
 40
0.0
 40
0.0
 40
1.5
 40
1.5
 40
1.5
 10
0.0
 20
50.0
 30
-7.5
 10
0.0
 20
49.25
 30
-7.5
 10
0.0
 20
48.5
 30
-7.5
  0
ARC
  5
1CB
330
15E
100
AcDbEntity
  8
Layer 01
100
AcDbCircle
 10
0.0
 20
0.0
 30
48.5
 40
7.5
210
0.0
220
1.0
230
0.0
100
AcDbArc
 50
270.0
 51
90.0
  0
SPLINE
  5
1CC
330
15E
100
AcDbEntity
  8
Layer 01
100
AcDbSpline
210
0.0
220
0.0
230
1.0
 70
    24
 71
     2
 72
     6
 73
     3
 74
     0
 42
0.000000001
 43
0.0000000001
 40
0.0
 40
0.0
 40
0.0
 40
1.5
 40
1.5
 40
1.5
 10
0.0
 20
48.5
 30
7.5
 10
0.0
 20
49.25
 30
7.5
 10
0.0
 20
50.0
 30
7.5
  0
ARC
  5
1CD
330
15E
100
AcDbEntity
  8
Layer 01
100
AcDbCircle
 10
0.0
 20
0.0
 30
50.0
 40
7.5
210
0.0
220
1.0
230
0.0
100
AcDbArc
 50
90.00000000000001
 51
270.0
  0
ARC
  5
1CE
330
15E
100
AcDbEntity
  8
Layer 01
100
AcDbCircle
 10
0.0
 20
0.0
 30
48.5
 40
7.5
210
0.0
220
1.0
230
0.0
100
AcDbArc
 50
90.00000000000001
 51
270.0
  0
ARC
  5
1CF
330
15E
100
AcDbEntity
  8
Layer 01
100
AcDbCircle
 10
89.34813893174
 20
-23.94076167198
 30
48.5
 40
11.0
210
0.0
220
1.0
230
0.0
100
AcDbArc
 50
90.0
 51
270.0
  0
ARC
  5
1D0
330
15E
100
AcDbEntity
  8
Layer 01
100
AcDbCircle
 10
89.34813893174
 20
-23.94076167198
 30
50.43896951832
 40
8.193896951829998
210
0.0
220
1.0
230
0.0
100
AcDbArc
 50
90.0
 51
270.0
  0
ARC
  5
1D1
330
15E
100
AcDbEntity
  8
Layer 01
100
AcDbCircle
 10
51.50000000000078
 20
-12.94076167198
 30
-89.34813893174
 40
3.000000000000782
210
1.0
220
0.0
230
0.0
100
AcDbArc
 50
179.9999999999999
 51
249.2876280451433
  0
ARC
  5
1D2
330
15E
100
AcDbEntity
  8
Layer 01
100
AcDbCircle
 10
51.50000000000079
 20
-34.94076167198
 30
-89.34813893174
 40
3.000000000000789
210
1.0
220
0.0
230
0.0
100
AcDbArc
 50
110.7123719548568
 51
180.0
  0
ARC
  5
1D3
330
15E
100
AcDbEntity
  8
Layer 01
100
AcDbCircle
 10
89.34813893174
 20
-23.94076167198
 30
48.5
 40
11.0
210
0.0
220
1.0
230
0.0
100
AcDbArc
 50
270.0
 51
90.0
  0
ARC
  5
1D4
330
15E
100
AcDbEntity
  8
Layer 01
100
AcDbCircle
 10
89.34813893174
 20
-23.94076167198
 30
50.43896951832
 40
8.193896951829998
210
0.0
220
1.0
230
0.0
100
AcDbArc
 50
270.0
 51
90.0
  0
SPLINE
  5
1D5
330
15E
100
AcDbEntity
  8
Layer 01
100
AcDbSpline
210
0.0
220
0.0
230
1.0
 70
    24
 71
     2
 72
     6
 73
     3
 74
     0
 42
0.000000001
 43
0.0000000001
 40
0.0
 40
0.0
 40
0.0
 40
2.236067977492854
 40
2.236067977492854
 40
2.236067977492854
 10
-89.34813893174
 20
52.53051524084
 30
-31.34381319607
 10
-89.34813893174
 20
51.48474237958
 30
-31.73923590994
 10
-89.34813893174
 20
50.43896951832
 30
-32.13465862381
  0
SPLINE
  5
1D6
330
15E
100
AcDbEntity
  8
Layer 01
100
AcDbSpline
210
0.0
220
0.0
230
1.0
 70
    24
 71
     2
 72
     6
 73
     3
 74
     0
 42
0.000000001
 43
0.0000000001
 40
0.0
 40
0.0
 40
0.0
 40
2.236067977496391
 40
2.236067977496391
 40
2.236067977496391
 10
-89.34813893174
 20
50.43896951832
 30
-15.74686472015
 10
-89.34813893174
 20
51.48474237958
 30
-16.142287434025
 10
-89.34813893174
 20
52.53051524084
 30
-16.5377101479
  0
ARC
  5
1D7
330
15E
100
AcDbEntity
  8
Layer 01
100
AcDbCircle
 10
-89.34813893174
 20
-23.940761671985
 30
-52.53051524084
 40
7.403051524084997
210
0.0
220
-1.0
230
0.0
100
AcDbArc
 50
90.0
 51
270.0
  0
ARC
  5
1D8
330
15E
100
AcDbEntity
  8
Layer 01
100
AcDbCircle
 10
-89.34813893174
 20
-23.940761671985
 30
-52.53051524084
 40
7.403051524085001
210
0.0
220
-1.0
230
0.0
100
AcDbArc
 50
270.0
 51
90.0
  0
ARC
  5
1D9
330
15E
100
AcDbEntity
  8
Layer 01
100
AcDbCircle
 10
-89.34813893174
 20
-23.94076167198
 30
-53.5
 40
6.0
210
0.0
220
-1.0
230
0.0
100
AcDbArc
 50
270.0
 51
90.0
  0
ARC
  5
1DA
330
15E
100
AcDbEntity
  8
Layer 01
100
AcDbCircle
 10
52.00000000000684
 20
-17.94076167198
 30
-89.34813893174
 40
1.499999999993157
210
1.0
220
0.0
230
0.0
100
AcDbArc
 50
0.0
 51
69.28762804533406
  0
ARC
  5
1DB
330
15E
100
AcDbEntity
  8
Layer 01
100
AcDbCircle
 10
51.99999999999237
 20
-29.94076167198
 30
-89.34813893174
 40
1.500000000007631
210
1.0
220
0.0
230
0.0
100
AcDbArc
 50
290.712371955048
 51
0.0
  0
ARC
  5
1DC
330
15E
100
AcDbEntity
  8
Layer 01
100
AcDbCircle
 10
-89.34813893174
 20
-23.94076167198
 30
-55.0
 40
2.75
210
0.0
220
-1.0
230
0.0
100
AcDbArc
 50
0.0
 51
180.0
  0
SPLINE
  5
1DD
330
15E
100
AcDbEntity
  8
Layer 01
100
AcDbSpline
210
0.0
220
0.0
230
1.0
 70
    24
 71
     2
 72
     6
 73
     3
 74
     0
 42
0.000000001
 43
0.0000000001
 40
0.0
 40
0.0
 40
0.0
 40
1.5
 40
1.5
 40
1.5
 10
-92.09813893174
 20
55.0
 30
-23.94076167198
 10
-92.09813893174
 20
54.25
 30
-23.94076167198
 10
-92.09813893174
 20
53.5
 30
-23.94076167198
  0
ARC
  5
1DE
330
15E
100
AcDbEntity
  8
Layer 01
100
AcDbCircle
 10
-89.34813893174
 20
-23.94076167198
 30
-53.5
 40
2.75
210
0.0
220
-1.0
230
0.0
100
AcDbArc
 50
0.0
 51
180.0
  0
SPLINE
  5
1DF
330
15E
100
AcDbEntity
  8
Layer 01
100
AcDbSpline
210
0.0
220
0.0
230
1.0
 70
    24
 71
     2
 72
     6
 73
     3
 74
     0
 42
0.000000001
 43
0.0000000001
 40
0.0
 40
0.0
 40
0.0
 40
1.5
 40
1.5
 40
1.5
 10
-86.59813893174
 20
53.5
 30
-23.94076167198
 10
-86.59813893174
 20
54.25
 30
-23.94076167198
 10
-86.59813893174
 20
55.0
 30
-23.94076167198
  0
ARC
  5
1E0
330
15E
100
AcDbEntity
  8
Layer 01
100
AcDbCircle
 10
-89.34813893174
 20
-23.94076167198
 30
-55.0
 40
2.75
210
0.0
220
-1.0
230
0.0
100
AcDbArc
 50
180.0
 51
0.0
  0
ARC
  5
1E1
330
15E
100
AcDbEntity
  8
Layer 01
100
AcDbCircle
 10
-89.34813893174
 20
-23.94076167198
 30
-53.5
 40
2.75
210
0.0
220
-1.0
230
0.0
100
AcDbArc
 50
180.0
 51
0.0
  0
ARC
  5
1E2
330
15E
100
AcDbEntity
  8
Layer 01
100
AcDbCircle
 10
89.34813893174
 20
-23.94076167198
 30
55.0
 40
6.0
210
0.0
220
1.0
230
0.0
100
AcDbArc
 50
90.0
 51
270.0
  0
ARC
  5
1E3
330
15E
100
AcDbEntity
  8
Layer 01
100
AcDbCircle
 10
89.34813893174
 20
-23.94076167198
 30
53.06103048168
 40
8.806103048170002
210
0.0
220
1.0
230
0.0
100
AcDbArc
 50
90.0
 51
270.0
  0
ARC
  5
1E4
330
15E
100
AcDbEntity
  8
Layer 01
100
AcDbCircle
 10
51.99999999999921
 20
-17.94076167198
 30
-89.34813893174
 40
3.000000000000789
210
1.0
220
0.0
230
0.0
100
AcDbArc
 50
0.0
 51
69.2876280451432
  0
ARC
  5
1E5
330
15E
100
AcDbEntity
  8
Layer 01
100
AcDbCircle
 10
51.99999999999921
 20
-29.94076167198
 30
-89.34813893174
 40
3.000000000000789
210
1.0
220
0.0
230
0.0
100
AcDbArc
 50
290.7123719548568
 51
0.0
  0
ARC
  5
1E6
330
15E
100
AcDbEntity
  8
Layer 01
100
AcDbCircle
 10
89.34813893174
 20
-23.94076167198
 30
55.0
 40
6.0
210
0.0
220
1.0
230
0.0
100
AcDbArc
 50
270.0
 51
90.0
  0
ARC
  5
1E7
330
15E
100
AcDbEntity
  8
Layer 01
100
AcDbCircle
 10
89.34813893174
 20
-23.94076167198
 30
53.06103048168
 40
8.806103048170002
210
0.0
220
1.0
230
0.0
100
AcDbArc
 50
270.0
 51
90.0
  0
SPLINE
  5
1E8
330
15E
100
AcDbEntity
  8
Layer 01
100
AcDbSpline
210
0.0
220
0.0
230
1.0
 70
    24
 71
     2
 72
     6
 73
     3
 74
     0
 42
0.000000001
 43
0.0000000001
 40
-2.236067977496391
 40
-2.236067977496391
 40
-2.236067977496391
 40
0.0
 40
0.0
 40
0.0
 10
-89.34813893174
 20
53.06103048168
 30
-32.74686472015
 10
-89.34813893174
 20
52.01525762042
 30
-33.142287434025
 10
-89.34813893174
 20
50.96948475916
 30
-33.5377101479
  0
SPLINE
  5
1E9
330
15E
100
AcDbEntity
  8
Layer 01
100
AcDbSpline
210
0.0
220
0.0
230
1.0
 70
    24
 71
     2
 72
     6
 73
     3
 74
     0
 42
0.000000001
 43
0.0000000001
 40
-2.236067977492854
 40
-2.236067977492854
 40
-2.236067977492854
 40
0.0
 40
0.0
 40
0.0
 10
-89.34813893174
 20
50.96948475916
 30
-14.34381319607
 10
-89.34813893174
 20
52.01525762042
 30
-14.73923590994
 10
-89.34813893174
 20
53.06103048168
 30
-15.13465862381
  0
ARC
  5
1EA
330
15E
100
AcDbEntity
  8
Layer 01
100
AcDbCircle
 10
89.34813893174
 20
-23.940761671985
 30
50.96948475916
 40
9.596948475915
210
0.0
220
1.0
230
0.0
100
AcDbArc
 50
270.0
 51
90.0
  0
ARC
  5
1EB
330
15E
100
AcDbEntity
  8
Layer 01
100
AcDbCircle
 10
89.34813893174
 20
-23.940761671985
 30
50.96948475916
 40
9.596948475915
210
0.0
220
1.0
230
0.0
100
AcDbArc
 50
90.0
 51
270.0
  0
ARC
  5
1EC
330
15E
100
AcDbEntity
  8
Layer 01
100
AcDbCircle
 10
89.34813893174
 20
-23.94076167198
 30
50.0
 40
11.0
210
0.0
220
1.0
230
0.0
100
AcDbArc
 50
90.0
 51
270.0
  0
ARC
  5
1ED
330
15E
100
AcDbEntity
  8
Layer 01
100
AcDbCircle
 10
51.50000000000764
 20
-12.94076167198
 30
-89.34813893174
 40
1.500000000007641
210
1.0
220
0.0
230
0.0
100
AcDbArc
 50
180.0000000000001
 51
249.2876280449519
  0
ARC
  5
1EE
330
15E
100
AcDbEntity
  8
Layer 01
100
AcDbCircle
 10
51.49999999999316
 20
-34.94076167198
 30
-89.34813893174
 40
1.499999999993157
210
1.0
220
0.0
230
0.0
100
AcDbArc
 50
110.7123719546659
 51
180.0
  0
ARC
  5
1EF
330
15E
100
AcDbEntity
  8
Layer 01
100
AcDbCircle
 10
89.34813893174
 20
-23.94076167198
 30
50.0
 40
11.0
210
0.0
220
1.0
230
0.0
100
AcDbArc
 50
270.0
 51
90.0
  0
ARC
  5
1F0
330
15E
100
AcDbEntity
  8
Layer 01
100
AcDbCircle
 10
89.34813893174
 20
-23.94076167198
 30
53.5
 40
6.0
210
0.0
220
1.0
230
0.0
100
AcDbArc
 50
270.0
 51
90.0
  0
ARC
  5
1F1
330
15E
100
AcDbEntity
  8
Layer 01
100
AcDbCircle
 10
-51.49999999969256
 20
12.94076167222874
 30
-89.3481389318786
 40
3.000000000001677
210
-0.5000000000000168
220
-2.765810007573464E-12
230
0.866025403784429
100
AcDbArc
 50
359.9999999997254
 51
69.28762804485707
  0
ARC
  5
1F2
330
15E
100
AcDbEntity
  8
Layer 01
100
AcDbCircle
 10
-65.40737725975629
 20
-65.4073772597622
 30
48.5
 40
10.9999999999967
210
0.0
220
1.0
230
0.0
100
AcDbArc
 50
330.0000000000034
 51
149.9999999999768
  0
ARC
  5
1F3
330
15E
100
AcDbEntity
  8
Layer 01
100
AcDbCircle
 10
-65.40737725975839
 20
-65.40737725976089
 30
50.43896951832
 40
8.19389695182856
210
0.0
220
1.0
230
0.0
100
AcDbArc
 50
330.0000000000418
 51
149.9999999999467
  0
ARC
  5
1F4
330
15E
100
AcDbEntity
  8
Layer 01
100
AcDbCircle
 10
-51.49999999973975
 20
34.94076167212698
 30
-89.34813893182346
 40
2.999999999994436
210
-0.5000000000000167
220
-1.699429468050339E-12
230
0.866025403784429
100
AcDbArc
 50
290.7123719546045
 51
359.9999999998317
  0
ARC
  5
1F5
330
15E
100
AcDbEntity
  8
Layer 01
100
AcDbCircle
 10
-65.40737725975842
 20
-65.40737725976089
 30
50.43896951832
 40
8.19389695182855
210
0.0
220
1.0
230
0.0
100
AcDbArc
 50
149.9999999999466
 51
330.0000000000418
  0
ARC
  5
1F6
330
15E
100
AcDbEntity
  8
Layer 01
100
AcDbCircle
 10
-65.40737725975623
 20
-65.40737725976216
 30
48.5
 40
10.99999999999669
210
0.0
220
1.0
230
0.0
100
AcDbArc
 50
149.9999999999771
 51
330.000000000003
  0
SPLINE
  5
1F7
330
15E
100
AcDbEntity
  8
Layer 01
100
AcDbSpline
210
0.0
220
0.0
230
1.0
 70
    24
 71
     2
 72
     6
 73
     3
 74
     0
 42
0.000000001
 43
0.0000000001
 40
0.0
 40
0.0
 40
0.0
 40
2.236067977492973
 40
2.236067977492973
 40
2.236067977492973
 10
71.81860794514
 20
52.53051524084
 30
-61.70585149771
 10
72.161054060585
 20
51.48474237958
 30
-61.508140140775
 10
72.50350017603
 20
50.43896951832
 30
-61.31042878384
  0
SPLINE
  5
1F8
330
15E
100
AcDbEntity
  8
Layer 01
100
AcDbSpline
210
0.0
220
0.0
230
1.0
 70
    24
 71
     2
 72
     6
 73
     3
 74
     0
 42
0.000000001
 43
0.0000000001
 40
0.0
 40
0.0
 40
0.0
 40
2.236067977492972
 40
2.236067977492972
 40
2.236067977492972
 10
58.31125434348
 20
50.43896951832
 30
-69.50432573567
 10
58.653700458925
 20
51.48474237958
 30
-69.30661437873499
 10
58.99614657436999
 20
52.53051524084
 30
-69.1089030218
  0
ARC
  5
1F9
330
15E
100
AcDbEntity
  8
Layer 01
100
AcDbCircle
 10
65.4073772597584
 20
-65.4073772597609
 30
-52.53051524084
 40
7.403051524088234
210
0.0
220
-1.0
230
0.0
100
AcDbArc
 50
209.9999999999552
 51
30.00000000006067
  0
ARC
  5
1FA
330
15E
100
AcDbEntity
  8
Layer 01
100
AcDbCircle
 10
65.40737725975842
 20
-65.40737725976095
 30
-52.53051524084
 40
7.40305152408822
210
0.0
220
-1.0
230
0.0
100
AcDbArc
 50
30.00000000006102
 51
209.9999999999548
  0
ARC
  5
1FB
330
15E
100
AcDbEntity
  8
Layer 01
100
AcDbCircle
 10
65.40737725975623
 20
-65.40737725976217
 30
-53.5
 40
5.999999999998581
210
0.0
220
-1.0
230
0.0
100
AcDbArc
 50
30.00000000003169
 51
209.9999999999838
  0
ARC
  5
1FC
330
15E
100
AcDbEntity
  8
Layer 01
100
AcDbCircle
 10
-52.0000000005092
 20
17.94076167159702
 30
-89.34813893151558
 40
1.500000000003487
210
-0.5000000000000131
220
4.257448722944768E-12
230
0.866025403784431
100
AcDbArc
 50
180.0000000004215
 51
249.2876280454832
  0
ARC
  5
1FD
330
15E
100
AcDbEntity
  8
Layer 01
100
AcDbCircle
 10
-52.00000000064664
 20
29.94076167155826
 30
-89.34813893149288
 40
1.500000000010708
210
-0.5000000000000144
220
4.655337381083417E-12
230
0.8660254037844304
100
AcDbArc
 50
110.7123719555916
 51
180.0000000004625
  0
ARC
  5
1FE
330
15E
100
AcDbEntity
  8
Layer 01
100
AcDbCircle
 10
65.40737725975781
 20
-65.40737725975626
 30
-55.0
 40
2.749999999998076
210
0.0
220
-1.0
230
0.0
100
AcDbArc
 50
119.9999999999701
 51
300.0000000000754
  0
SPLINE
  5
1FF
330
15E
100
AcDbEntity
  8
Layer 01
100
AcDbSpline
210
0.0
220
0.0
230
1.0
 70
    24
 71
     2
 72
     6
 73
     3
 74
     0
 42
0.000000001
 43
0.0000000001
 40
0.0
 40
0.0
 40
0.0
 40
1.5
 40
1.5
 40
1.5
 10
66.78237725975998
 20
55.0
 30
-67.78894712016
 10
66.78237725975998
 20
54.25
 30
-67.78894712016
 10
66.78237725975998
 20
53.5
 30
-67.78894712016
  0
ARC
  5
200
330
15E
100
AcDbEntity
  8
Layer 01
100
AcDbCircle
 10
65.40737725975782
 20
-65.40737725975626
 30
-53.5
 40
2.749999999998069
210
0.0
220
-1.0
230
0.0
100
AcDbArc
 50
119.9999999999709
 51
300.0000000000752
  0
SPLINE
  5
201
330
15E
100
AcDbEntity
  8
Layer 01
100
AcDbSpline
210
0.0
220
0.0
230
1.0
 70
    24
 71
     2
 72
     6
 73
     3
 74
     0
 42
0.000000001
 43
0.0000000001
 40
0.0
 40
0.0
 40
0.0
 40
1.5
 40
1.5
 40
1.5
 10
64.03237725976
 20
53.5
 30
-63.02580739935001
 10
64.03237725976001
 20
54.25
 30
-63.02580739935001
 10
64.03237725976001
 20
55.0
 30
-63.02580739935
  0
ARC
  5
202
330
15E
100
AcDbEntity
  8
Layer 01
100
AcDbCircle
 10
65.40737725975785
 20
-65.40737725975626
 30
-55.0
 40
2.749999999998087
210
0.0
220
-1.0
230
0.0
100
AcDbArc
 50
300.0000000000746
 51
119.999999999971
  0
ARC
  5
203
330
15E
100
AcDbEntity
  8
Layer 01
100
AcDbCircle
 10
65.40737725975785
 20
-65.40737725975626
 30
-53.5
 40
2.749999999998087
210
0.0
220
-1.0
230
0.0
100
AcDbArc
 50
300.0000000000746
 51
119.999999999971
  0
ARC
  5
204
330
15E
100
AcDbEntity
  8
Layer 01
100
AcDbCircle
 10
-65.40737725975626
 20
-65.40737725976217
 30
55.0
 40
5.999999999998589
210
0.0
220
1.0
230
0.0
100
AcDbArc
 50
330.0000000000162
 51
149.9999999999683
  0
ARC
  5
205
330
15E
100
AcDbEntity
  8
Layer 01
100
AcDbCircle
 10
-65.40737725975842
 20
-65.40737725976095
 30
53.06103048168
 40
8.806103048166714
210
0.0
220
1.0
230
0.0
100
AcDbArc
 50
330.0000000000323
 51
149.999999999943
  0
ARC
  5
206
330
15E
100
AcDbEntity
  8
Layer 01
100
AcDbCircle
 10
-52.0000000002106
 20
17.94076167182676
 30
-89.34813893164977
 40
2.999999999994451
210
-0.5000000000000168
220
1.702750455556883E-12
230
0.866025403784429
100
AcDbArc
 50
180.0000000001689
 51
249.2876280453959
  0
ARC
  5
207
330
15E
100
AcDbEntity
  8
Layer 01
100
AcDbCircle
 10
-52.00000000038842
 20
29.9407616717285
 30
-89.3481389315901
 40
3.000000000001663
210
-0.5000000000000168
220
2.762489020070975E-12
230
0.8660254037844289
100
AcDbArc
 50
110.7123719551425
 51
180.0000000002742
  0
ARC
  5
208
330
15E
100
AcDbEntity
  8
Layer 01
100
AcDbCircle
 10
-65.40737725975625
 20
-65.40737725976216
 30
55.0
 40
5.999999999998588
210
0.0
220
1.0
230
0.0
100
AcDbArc
 50
149.9999999999684
 51
330.000000000016
  0
ARC
  5
209
330
15E
100
AcDbEntity
  8
Layer 01
100
AcDbCircle
 10
-65.4073772597584
 20
-65.40737725976088
 30
53.06103048168
 40
8.806103048166719
210
0.0
220
1.0
230
0.0
100
AcDbArc
 50
149.9999999999435
 51
330.0000000000319
  0
SPLINE
  5
20A
330
15E
100
AcDbEntity
  8
Layer 01
100
AcDbSpline
210
0.0
220
0.0
230
1.0
 70
    24
 71
     2
 72
     6
 73
     3
 74
     0
 42
0.000000001
 43
0.0000000001
 40
-2.236067977496033
 40
-2.236067977496033
 40
-2.236067977496033
 40
0.0
 40
0.0
 40
0.0
 10
73.03368620781
 20
53.06103048168
 30
-61.00432573567
 10
73.37613232326
 20
52.01525762042
 30
-60.80661437873501
 10
73.71857843870998
 20
50.96948475916
 30
-60.6089030218
  0
SPLINE
  5
20B
330
15E
100
AcDbEntity
  8
Layer 01
100
AcDbSpline
210
0.0
220
0.0
230
1.0
 70
    24
 71
     2
 72
     6
 73
     3
 74
     0
 42
0.000000001
 43
0.0000000001
 40
-2.236067977496036
 40
-2.236067977496036
 40
-2.236067977496036
 40
0.0
 40
0.0
 40
0.0
 10
57.09617608080001
 20
50.96948475916
 30
-70.20585149771
 10
57.43862219624999
 20
52.01525762042
 30
-70.008140140775
 10
57.78106831169998
 20
53.06103048168
 30
-69.81042878384
  0
ARC
  5
20C
330
15E
100
AcDbEntity
  8
Layer 01
100
AcDbCircle
 10
-65.40737725975839
 20
-65.40737725976088
 30
50.96948475916
 40
9.596948475915692
210
0.0
220
1.0
230
0.0
100
AcDbArc
 50
149.9999999999791
 51
330.0000000000602
  0
ARC
  5
20D
330
15E
100
AcDbEntity
  8
Layer 01
100
AcDbCircle
 10
-65.40737725975845
 20
-65.40737725976098
 30
50.96948475916
 40
9.596948475915699
210
0.0
220
1.0
230
0.0
100
AcDbArc
 50
330.0000000000609
 51
149.9999999999785
  0
ARC
  5
20E
330
15E
100
AcDbEntity
  8
Layer 01
100
AcDbCircle
 10
-51.49999999890268
 20
12.94076167285606
 30
-89.34813893223456
 40
1.499999999998209
210
-0.50000000000002
220
-9.802295429706303E-12
230
0.8660254037844273
100
AcDbArc
 50
359.9999999990276
 51
69.28762804422801
  0
ARC
  5
20F
330
15E
100
AcDbEntity
  8
Layer 01
100
AcDbCircle
 10
-65.40737725975629
 20
-65.4073772597622
 30
50.0
 40
10.9999999999967
210
0.0
220
1.0
230
0.0
100
AcDbArc
 50
330.0000000000034
 51
149.9999999999768
  0
ARC
  5
210
330
15E
100
AcDbEntity
  8
Layer 01
100
AcDbCircle
 10
-65.40737725975623
 20
-65.40737725976216
 30
50.0
 40
10.99999999999669
210
0.0
220
1.0
230
0.0
100
AcDbArc
 50
149.9999999999771
 51
330.000000000003
  0
ARC
  5
211
330
15E
100
AcDbEntity
  8
Layer 01
100
AcDbCircle
 10
51.50000000012354
 20
34.94076167189591
 30
89.348138931697
 40
1.499999999990941
210
0.500000000000022
220
-8.847855072463664E-13
230
-0.8660254037844261
100
AcDbArc
 50
179.9999999999115
 51
249.2876280453046
  0
ARC
  5
212
330
15E
100
AcDbEntity
  8
Layer 01
100
AcDbCircle
 10
-65.40737725975625
 20
-65.40737725976216
 30
53.5
 40
5.999999999998588
210
0.0
220
1.0
230
0.0
100
AcDbArc
 50
149.9999999999684
 51
330.000000000016
  0
ARC
  5
213
330
15E
100
AcDbEntity
  8
Layer 01
100
AcDbCircle
 10
-51.49999999988026
 20
12.94076167183496
 30
-89.34813893182135
 40
2.99999999999445
210
-0.500000000000016
220
-1.705956926251325E-12
230
-0.8660254037844294
100
AcDbArc
 50
0.0000000001695617
 51
69.28762804539629
  0
ARC
  5
214
330
15E
100
AcDbEntity
  8
Layer 01
100
AcDbCircle
 10
-23.94076167197997
 20
89.34813893173995
 30
48.5
 40
11.00000000000102
210
0.0
220
1.0
230
0.0
100
AcDbArc
 50
209.9999999999967
 51
29.9999999999972
  0
ARC
  5
215
330
15E
100
AcDbEntity
  8
Layer 01
100
AcDbCircle
 10
-23.94076167198589
 20
89.34813893173656
 30
50.43896951832
 40
8.193896951828572
210
0.0
220
1.0
230
0.0
100
AcDbArc
 50
210.0000000000184
 51
29.99999999999336
  0
ARC
  5
216
330
15E
100
AcDbEntity
  8
Layer 01
100
AcDbCircle
 10
-51.50000000000918
 20
34.94076167197372
 30
-89.34813893174542
 40
3.000000000014197
210
-0.5000000000000168
220
-1.740655519836003E-13
230
-0.866025403784429
100
AcDbArc
 50
290.7123719550511
 51
0.0000000000173701
  0
ARC
  5
217
330
15E
100
AcDbEntity
  8
Layer 01
100
AcDbCircle
 10
-23.94076167198594
 20
89.34813893173663
 30
50.43896951832
 40
8.193896951828572
210
0.0
220
1.0
230
0.0
100
AcDbArc
 50
29.9999999999928
 51
210.000000000019
  0
ARC
  5
218
330
15E
100
AcDbEntity
  8
Layer 01
100
AcDbCircle
 10
-23.94076167198004
 20
89.34813893174007
 30
48.5
 40
11.00000000000102
210
0.0
220
1.0
230
0.0
100
AcDbArc
 50
29.99999999999651
 51
209.9999999999973
  0
SPLINE
  5
219
330
15E
100
AcDbEntity
  8
Layer 01
100
AcDbSpline
210
0.0
220
0.0
230
1.0
 70
    24
 71
     2
 72
     6
 73
     3
 74
     0
 42
0.000000001
 43
0.0000000001
 40
0.0
 40
0.0
 40
0.0
 40
2.236067977492975
 40
2.236067977492975
 40
2.236067977492975
 10
17.52953098659999
 20
52.53051524084
 30
93.04966469378
 10
17.187084871155
 20
51.48474237958
 30
93.24737605071502
 10
16.84463875571
 20
50.43896951832
 30
93.44508740765002
  0
SPLINE
  5
21A
330
15E
100
AcDbEntity
  8
Layer 01
100
AcDbSpline
210
0.0
220
0.0
230
1.0
 70
    24
 71
     2
 72
     6
 73
     3
 74
     0
 42
0.000000001
 43
0.0000000001
 40
0.0
 40
0.0
 40
0.0
 40
2.236067977494744
 40
2.236067977494744
 40
2.236067977494744
 10
31.03688458826
 20
50.43896951832
 30
85.25119045582
 10
30.694438472815
 20
51.48474237958
 30
85.44890181276
 10
30.35199235736999
 20
52.53051524084
 30
85.6466131697
  0
ARC
  5
21B
330
15E
100
AcDbEntity
  8
Layer 01
100
AcDbCircle
 10
23.94076167198376
 20
89.34813893173788
 30
-52.53051524084
 40
7.403051524085719
210
0.0
220
-1.0
230
0.0
100
AcDbArc
 50
330.0000000000447
 51
150.0000000000066
  0
ARC
  5
21C
330
15E
100
AcDbEntity
  8
Layer 01
100
AcDbCircle
 10
23.94076167198377
 20
89.34813893173788
 30
-52.53051524084
 40
7.403051524085731
210
0.0
220
-1.0
230
0.0
100
AcDbArc
 50
150.0000000000066
 51
330.0000000000446
  0
ARC
  5
21D
330
15E
100
AcDbEntity
  8
Layer 01
100
AcDbCircle
 10
23.94076167198378
 20
89.34813893173788
 30
-53.5
 40
5.999999999998588
210
0.0
220
-1.0
230
0.0
100
AcDbArc
 50
149.9999999999689
 51
330.0000000000156
  0
ARC
  5
21E
330
15E
100
AcDbEntity
  8
Layer 01
100
AcDbCircle
 10
-51.99999999974685
 20
17.94076167159917
 30
-89.34813893196883
 40
1.500000000003496
210
-0.500000000000014
220
-4.284188398200202E-12
230
-0.8660254037844307
100
AcDbArc
 50
180.0000000004251
 51
249.2876280454862
  0
ARC
  5
21F
330
15E
100
AcDbEntity
  8
Layer 01
100
AcDbCircle
 10
-52.00000000015691
 20
29.94076167236819
 30
-89.34813893151195
 40
1.50000000000351
210
-0.5000000000000197
220
4.279149658537513E-12
230
-0.8660254037844274
100
AcDbArc
 50
110.7123719545147
 51
179.9999999995754
  0
ARC
  5
220
330
15E
100
AcDbEntity
  8
Layer 01
100
AcDbCircle
 10
23.94076167197999
 20
89.34813893174
 30
-55.0
 40
2.750000000002403
210
0.0
220
-1.0
230
0.0
100
AcDbArc
 50
240.0000000000291
 51
60.00000000002899
  0
SPLINE
  5
221
330
15E
100
AcDbEntity
  8
Layer 01
100
AcDbSpline
210
0.0
220
0.0
230
1.0
 70
    24
 71
     2
 72
     6
 73
     3
 74
     0
 42
0.000000001
 43
0.0000000001
 40
0.0
 40
0.0
 40
0.0
 40
1.5
 40
1.5
 40
1.5
 10
25.31576167197999
 20
55.0
 30
91.72970879214998
 10
25.31576167197999
 20
54.25
 30
91.72970879214998
 10
25.31576167197999
 20
53.5
 30
91.72970879214998
  0
ARC
  5
222
330
15E
100
AcDbEntity
  8
Layer 01
100
AcDbCircle
 10
23.94076167197999
 20
89.34813893174
 30
-53.5
 40
2.750000000002403
210
0.0
220
-1.0
230
0.0
100
AcDbArc
 50
240.0000000000291
 51
60.00000000002899
  0
SPLINE
  5
223
330
15E
100
AcDbEntity
  8
Layer 01
100
AcDbSpline
210
0.0
220
0.0
230
1.0
 70
    24
 71
     2
 72
     6
 73
     3
 74
     0
 42
0.000000001
 43
0.0000000001
 40
0.0
 40
0.0
 40
0.0
 40
1.5
 40
1.5
 40
1.5
 10
22.56576167198001
 20
53.5
 30
86.96656907133001
 10
22.56576167198001
 20
54.25
 30
86.96656907133001
 10
22.56576167198001
 20
55.0
 30
86.96656907133001
  0
ARC
  5
224
330
15E
100
AcDbEntity
  8
Layer 01
100
AcDbCircle
 10
23.94076167198
 20
89.34813893173998
 30
-55.0
 40
2.750000000002404
210
0.0
220
-1.0
230
0.0
100
AcDbArc
 50
60.00000000002911
 51
240.0000000000289
  0
ARC
  5
225
330
15E
100
AcDbEntity
  8
Layer 01
100
AcDbCircle
 10
23.94076167198
 20
89.34813893173998
 30
-53.5
 40
2.750000000002404
210
0.0
220
-1.0
230
0.0
100
AcDbArc
 50
60.00000000002911
 51
240.0000000000289
  0
ARC
  5
226
330
15E
100
AcDbEntity
  8
Layer 01
100
AcDbCircle
 10
-23.94076167198378
 20
89.34813893173788
 30
55.0
 40
5.999999999998588
210
0.0
220
1.0
230
0.0
100
AcDbArc
 50
209.9999999999844
 51
30.00000000003113
  0
ARC
  5
227
330
15E
100
AcDbEntity
  8
Layer 01
100
AcDbCircle
 10
-23.94076167198594
 20
89.34813893173663
 30
53.06103048168
 40
8.8061030481667
210
0.0
220
1.0
230
0.0
100
AcDbArc
 50
210.0000000000246
 51
30.00000000000012
  0
ARC
  5
228
330
15E
100
AcDbEntity
  8
Layer 01
100
AcDbCircle
 10
-52.00000000015913
 20
17.94076167223384
 30
-89.34813893158783
 40
3.000000000001677
210
-0.5000000000000168
220
2.759397066184589E-12
230
-0.866025403784429
100
AcDbArc
 50
179.999999999726
 51
249.2876280448577
  0
ARC
  5
229
330
15E
100
AcDbEntity
  8
Layer 01
100
AcDbCircle
 10
-52.00000000006939
 20
29.94076167213586
 30
-89.34813893164736
 40
2.999999999994444
210
-0.5000000000000168
220
1.702750455556883E-12
230
-0.866025403784429
100
AcDbArc
 50
110.7123719546041
 51
179.9999999998311
  0
ARC
  5
22A
330
15E
100
AcDbEntity
  8
Layer 01
100
AcDbCircle
 10
-23.94076167198375
 20
89.34813893173784
 30
55.0
 40
5.99999999999859
210
0.0
220
1.0
230
0.0
100
AcDbArc
 50
30.00000000003159
 51
209.9999999999839
  0
ARC
  5
22B
330
15E
100
AcDbEntity
  8
Layer 01
100
AcDbCircle
 10
-23.94076167198593
 20
89.34813893173661
 30
53.06103048168
 40
8.806103048166701
210
0.0
220
1.0
230
0.0
100
AcDbArc
 50
30.00000000000023
 51
210.0000000000244
  0
SPLINE
  5
22C
330
15E
100
AcDbEntity
  8
Layer 01
100
AcDbSpline
210
0.0
220
0.0
230
1.0
 70
    24
 71
     2
 72
     6
 73
     3
 74
     0
 42
0.000000001
 43
0.0000000001
 40
-2.236067977497807
 40
-2.236067977497807
 40
-2.236067977497807
 40
0.0
 40
0.0
 40
0.0
 10
16.31445272393
 20
53.06103048168
 30
93.75119045582
 10
15.97200660848
 20
52.01525762042
 30
93.94890181276
 10
15.62956049303
 20
50.96948475916
 30
94.1466131697
  0
SPLINE
  5
22D
330
15E
100
AcDbEntity
  8
Layer 01
100
AcDbSpline
210
0.0
220
0.0
230
1.0
 70
    24
 71
     2
 72
     6
 73
     3
 74
     0
 42
0.000000001
 43
0.0000000001
 40
-2.236067977496036
 40
-2.236067977496036
 40
-2.236067977496036
 40
0.0
 40
0.0
 40
0.0
 10
32.25196285093999
 20
50.96948475916
 30
84.54966469378002
 10
31.90951673548999
 20
52.01525762042
 30
84.74737605071502
 10
31.56707062004
 20
53.06103048168
 30
84.94508740765
  0
ARC
  5
22E
330
15E
100
AcDbEntity
  8
Layer 01
100
AcDbCircle
 10
-23.94076167198378
 20
89.3481389317379
 30
50.96948475916
 40
9.596948475918204
210
0.0
220
1.0
230
0.0
100
AcDbArc
 50
30.00000000002066
 51
209.9999999999917
  0
ARC
  5
22F
330
15E
100
AcDbEntity
  8
Layer 01
100
AcDbCircle
 10
-23.94076167198377
 20
89.34813893173788
 30
50.96948475916
 40
9.596948475918191
210
0.0
220
1.0
230
0.0
100
AcDbArc
 50
209.9999999999915
 51
30.00000000002079
  0
ARC
  5
230
330
15E
100
AcDbEntity
  8
Layer 01
100
AcDbCircle
 10
-51.50000000004938
 20
12.94076167206596
 30
-89.3481389316948
 40
1.499999999990965
210
-0.5000000000000254
220
8.728471297501282E-13
230
-0.8660254037844241
100
AcDbArc
 50
359.9999999999141
 51
69.28762804530591
  0
ARC
  5
231
330
15E
100
AcDbEntity
  8
Layer 01
100
AcDbCircle
 10
-23.94076167197997
 20
89.34813893173995
 30
50.0
 40
11.00000000000102
210
0.0
220
1.0
230
0.0
100
AcDbArc
 50
209.9999999999967
 51
29.9999999999972
  0
ARC
  5
232
330
15E
100
AcDbEntity
  8
Layer 01
100
AcDbCircle
 10
-23.94076167198004
 20
89.34813893174007
 30
50.0
 40
11.00000000000102
210
0.0
220
1.0
230
0.0
100
AcDbArc
 50
29.99999999999651
 51
209.9999999999973
  0
ARC
  5
233
330
15E
100
AcDbEntity
  8
Layer 01
100
AcDbCircle
 10
51.50000000012672
 20
34.94076167236948
 30
89.34813893152369
 40
1.500000000003506
210
0.5000000000000068
220
-4.274025031266971E-12
230
0.8660254037844347
100
AcDbArc
 50
180.0000000004244
 51
249.2876280454853
  0
ARC
  5
234
330
15E
100
AcDbEntity
  8
Layer 01
100
AcDbCircle
 10
-23.94076167198375
 20
89.34813893173784
 30
53.5
 40
5.99999999999859
210
0.0
220
1.0
230
0.0
100
AcDbArc
 50
30.00000000003159
 51
209.9999999999839
  0
LINE
  5
235
330
15E
100
AcDbEntity
  8
Layer 01
100
AcDbLine
 10
105.0
 20
50.0
 30
0.0
 11
7.500000000000007
 21
50.0
 31
0.0
  0
LINE
  5
236
330
15E
100
AcDbEntity
  8
Layer 01
100
AcDbLine
 10
-7.499999999999996
 20
50.0
 30
0.0
 11
-98.70000000000002
 21
50.0
 31
0.0
  0
LINE
  5
237
330
15E
100
AcDbEntity
  8
Layer 01
100
AcDbLine
 10
-101.3
 20
50.0
 30
0.0
 11
-105.0
 21
50.0
 31
0.0
  0
LINE
  5
238
330
15E
100
AcDbEntity
  8
Layer 01
100
AcDbLine
 10
0.0
 20
50.0
 30
105.0
 11
0.0
 21
50.0
 31
7.500000000000007
  0
LINE
  5
239
330
15E
100
AcDbEntity
  8
Layer 01
100
AcDbLine
 10
0.0
 20
50.0
 30
-7.499999999999996
 11
0.0
 21
50.0
 31
-105.0
  0
ARC
  5
23A
330
15E
100
AcDbEntity
  8
Layer 01
100
AcDbCircle
 10
40.0
 20
105.0
 30
0.0
 40
10.0
210
1.0
220
0.0
230
0.0
100
AcDbArc
 50
359.9999999999999
 51
82.98148813401832
  0
ARC
  5
23B
330
15E
100
AcDbEntity
  8
Layer 01
100
AcDbCircle
 10
0.0
 20
0.0
 30
-50.0
 40
105.0
210
0.0
220
-1.0
230
0.0
100
AcDbArc
 50
180.0
 51
0.0
  0
ARC
  5
23C
330
15E
100
AcDbEntity
  8
Layer 01
100
AcDbCircle
 10
-40.0
 20
-105.0
 30
0.0
 40
10.0
210
-1.0
220
0.0
230
0.0
100
AcDbArc
 50
179.9999999999999
 51
262.9814881340183
  0
ARC
  5
23D
330
15E
100
AcDbEntity
  8
Layer 01
100
AcDbCircle
 10
0.0
 20
0.0
 30
-20.61095010882002
 40
117.4625336235
210
0.0
220
-1.0
230
0.0
100
AcDbArc
 50
180.0
 51
0.0
  0
LINE
  5
23E
330
15E
100
AcDbEntity
  8
Layer 01
100
AcDbLine
 10
0.0
 20
41.22190021764202
 30
-114.9250672470165
 11
0.0
 21
-0.000000000002033
 31
-119.9999999999835
  0
ARC
  5
23F
330
15E
100
AcDbEntity
  8
Layer 01
100
AcDbCircle
 10
0.0
 20
0.0
 30
-20.61095010882002
 40
117.4625336235
210
0.0
220
-1.0
230
0.0
100
AcDbArc
 50
0.0
 51
180.0
  0
LINE
  5
240
330
15E
100
AcDbEntity
  8
Layer 01
100
AcDbLine
 10
0.0
 20
41.22190021764202
 30
114.9250672470165
 11
0.0
 21
-0.000000000002033
 31
119.9999999999835
  0
LINE
  5
241
330
15E
100
AcDbEntity
  8
Layer 01
100
AcDbLine
 10
0.0
 20
-0.1832850326543773
 30
118.5112399129011
 11
0.0
 21
-0.0000000000034024
 31
120.0000000000004
  0
LINE
  5
242
330
15E
100
AcDbEntity
  8
Layer 01
100
AcDbLine
 10
0.0
 20
-0.1832850326543773
 30
-118.5112399129011
 11
0.0
 21
-0.0000000000034024
 31
-120.0000000000004
  0
LINE
  5
243
330
15E
100
AcDbEntity
  8
Layer 01
100
AcDbLine
 10
0.0
 20
41.03861518499208
 30
-113.4363071600165
 11
0.0
 21
-0.1832850326354958
 31
-118.5112399129815
  0
ARC
  5
244
330
15E
100
AcDbEntity
  8
Layer 01
100
AcDbCircle
 10
0.0
 20
0.0
 30
-20.42766507617222
 40
115.9737735364997
210
0.0
220
-1.0
230
0.0
100
AcDbArc
 50
0.0
 51
180.0
  0
LINE
  5
245
330
15E
100
AcDbEntity
  8
Layer 01
100
AcDbLine
 10
0.0
 20
41.03861518499203
 30
113.4363071600165
 11
0.0
 21
-0.1832850326355686
 31
118.5112399129815
  0
ARC
  5
246
330
15E
100
AcDbEntity
  8
Layer 01
100
AcDbCircle
 10
40.0
 20
105.0
 30
0.0
 40
8.5
210
1.0
220
0.0
230
0.0
100
AcDbArc
 50
0.0
 51
82.9814881340863
  0
ARC
  5
247
330
15E
100
AcDbEntity
  8
Layer 01
100
AcDbCircle
 10
-40.0
 20
-105.0
 30
0.0
 40
8.5
210
-1.0
220
0.0
230
0.0
100
AcDbArc
 50
180.0
 51
262.9814881340863
  0
LINE
  5
248
330
15E
100
AcDbEntity
  8
Layer 01
100
AcDbLine
 10
105.0
 20
48.5
 30
0.0
 11
7.500000000000007
 21
48.5
 31
0.0
  0
LINE
  5
249
330
15E
100
AcDbEntity
  8
Layer 01
100
AcDbLine
 10
-7.499999999999996
 20
48.5
 30
0.0
 11
-98.70000000000002
 21
48.5
 31
0.0
  0
LINE
  5
24A
330
15E
100
AcDbEntity
  8
Layer 01
100
AcDbLine
 10
-101.3
 20
48.5
 30
0.0
 11
-105.0
 21
48.5
 31
0.0
  0
LINE
  5
24B
330
15E
100
AcDbEntity
  8
Layer 01
100
AcDbLine
 10
0.0
 20
48.5
 30
105.0
 11
0.0
 21
48.5
 31
7.500000000000007
  0
LINE
  5
24C
330
15E
100
AcDbEntity
  8
Layer 01
100
AcDbLine
 10
0.0
 20
48.5
 30
-7.499999999999996
 11
0.0
 21
48.5
 31
-105.0
  0
ARC
  5
24D
330
15E
100
AcDbEntity
  8
Layer 01
100
AcDbCircle
 10
-100.0
 20
0.0
 30
-49.25
 40
1.299999999999997
210
0.0
220
-1.0
230
0.0
100
AcDbArc
 50
0.0
 51
180.0
  0
LINE
  5
24E
330
15E
100
AcDbEntity
  8
Layer 01
100
AcDbLine
 10
-100.0
 20
49.99999999999999
 30
1.299999999999997
 11
-100.0
 21
48.5
 31
1.299999999999997
  0
ARC
  5
24F
330
15E
100
AcDbEntity
  8
Layer 01
100
AcDbCircle
 10
-100.0
 20
0.0
 30
-49.25
 40
1.299999999999997
210
0.0
220
-1.0
230
0.0
100
AcDbArc
 50
180.0
 51
0.0
  0
LINE
  5
250
330
15E
100
AcDbEntity
  8
Layer 01
100
AcDbLine
 10
-100.0
 20
49.99999999999999
 30
-1.299999999999997
 11
-100.0
 21
48.5
 31
-1.299999999999997
  0
ARC
  5
251
330
15E
100
AcDbEntity
  8
Layer 01
100
AcDbCircle
 10
-99.45218953683
 20
-10.45284632677
 30
-49.25
 40
1.299999999999997
210
0.0
220
-1.0
230
0.0
100
AcDbArc
 50
0.0
 51
180.0
  0
LINE
  5
252
330
15E
100
AcDbEntity
  8
Layer 01
100
AcDbLine
 10
-99.45218953683
 20
49.99999999999999
 30
-9.152846326770003
 11
-99.45218953683
 21
48.5
 31
-9.152846326770003
  0
ARC
  5
253
330
15E
100
AcDbEntity
  8
Layer 01
100
AcDbCircle
 10
-99.45218953683
 20
-10.45284632677
 30
-49.25
 40
1.299999999999997
210
0.0
220
-1.0
230
0.0
100
AcDbArc
 50
180.0
 51
0.0
  0
LINE
  5
254
330
15E
100
AcDbEntity
  8
Layer 01
100
AcDbLine
 10
-99.45218953683
 20
49.99999999999999
 30
-11.75284632677
 11
-99.45218953683
 21
48.5
 31
-11.75284632677
  0
ARC
  5
255
330
15E
100
AcDbEntity
  8
Layer 01
100
AcDbCircle
 10
49.99999999999999
 20
-86.60254037844
 30
-49.25
 40
1.299999999999999
210
0.0
220
-1.0
230
0.0
100
AcDbArc
 50
119.9999999999946
 51
299.9999999999951
  0
LINE
  5
256
330
15E
100
AcDbEntity
  8
Layer 01
100
AcDbLine
 10
49.34999999999997
 20
49.99999999999999
 30
-85.47670735352024
 11
49.34999999999997
 21
48.5
 31
-85.47670735352024
  0
LINE
  5
257
330
15E
100
AcDbEntity
  8
Layer 01
100
AcDbLine
 10
48.87416697508023
 20
49.99999999999999
 30
-87.25254037844002
 11
48.87416697508023
 21
48.5
 31
-87.25254037844002
  0
ARC
  5
258
330
15E
100
AcDbEntity
  8
Layer 01
100
AcDbCircle
 10
50.0
 20
-86.60254037843998
 30
-49.25
 40
1.299999999999999
210
0.0
220
-1.0
230
0.0
100
AcDbArc
 50
299.9999999999946
 51
119.9999999999952
  0
LINE
  5
259
330
15E
100
AcDbEntity
  8
Layer 01
100
AcDbLine
 10
50.65000000000002
 20
49.99999999999999
 30
-87.72837340335974
 11
50.65000000000002
 21
48.5
 31
-87.72837340335974
  0
LINE
  5
25A
330
15E
100
AcDbEntity
  8
Layer 01
100
AcDbLine
 10
51.12583302491976
 20
49.99999999999999
 30
-85.95254037843996
 11
51.12583302491976
 21
48.5
 31
-85.95254037843996
  0
ARC
  5
25B
330
15E
100
AcDbEntity
  8
Layer 01
100
AcDbCircle
 10
58.77852522925001
 20
-80.90169943749
 30
-49.25
 40
1.299999999999999
210
0.0
220
-1.0
230
0.0
100
AcDbArc
 50
119.9999999999983
 51
299.9999999999946
  0
LINE
  5
25C
330
15E
100
AcDbEntity
  8
Layer 01
100
AcDbLine
 10
58.12852522924999
 20
49.99999999999999
 30
-79.77586641257024
 11
58.12852522924999
 21
48.5
 31
-79.77586641257024
  0
LINE
  5
25D
330
15E
100
AcDbEntity
  8
Layer 01
100
AcDbLine
 10
57.65269220433025
 20
49.99999999999999
 30
-81.55169943749002
 11
57.65269220433025
 21
48.5
 31
-81.55169943749002
  0
ARC
  5
25E
330
15E
100
AcDbEntity
  8
Layer 01
100
AcDbCircle
 10
58.77852522925
 20
-80.90169943749001
 30
-49.25
 40
1.299999999999991
210
0.0
220
-1.0
230
0.0
100
AcDbArc
 50
299.9999999999952
 51
120.0000000000005
  0
LINE
  5
25F
330
15E
100
AcDbEntity
  8
Layer 01
100
AcDbLine
 10
59.42852522925001
 20
49.99999999999999
 30
-82.02753246240977
 11
59.42852522925001
 21
48.5
 31
-82.02753246240977
  0
LINE
  5
260
330
15E
100
AcDbEntity
  8
Layer 01
100
AcDbLine
 10
59.90435825416976
 20
49.99999999999999
 30
-80.25169943749
 11
59.90435825416976
 21
48.5
 31
-80.25169943749
  0
ARC
  5
261
330
15E
100
AcDbEntity
  8
Layer 01
100
AcDbCircle
 10
50.0
 20
86.60254037843998
 30
-49.25
 40
1.299999999999999
210
0.0
220
-1.0
230
0.0
100
AcDbArc
 50
240.0000000000048
 51
60.0000000000054
  0
LINE
  5
262
330
15E
100
AcDbEntity
  8
Layer 01
100
AcDbLine
 10
51.12583302491976
 20
49.99999999999999
 30
85.95254037843996
 11
51.12583302491976
 21
48.5
 31
85.95254037843996
  0
LINE
  5
263
330
15E
100
AcDbEntity
  8
Layer 01
100
AcDbLine
 10
50.65000000000002
 20
49.99999999999999
 30
87.72837340335974
 11
50.65000000000002
 21
48.5
 31
87.72837340335974
  0
ARC
  5
264
330
15E
100
AcDbEntity
  8
Layer 01
100
AcDbCircle
 10
49.99999999999999
 20
86.60254037844
 30
-49.25
 40
1.299999999999999
210
0.0
220
-1.0
230
0.0
100
AcDbArc
 50
60.00000000000427
 51
240.0000000000056
  0
LINE
  5
265
330
15E
100
AcDbEntity
  8
Layer 01
100
AcDbLine
 10
48.87416697508023
 20
49.99999999999999
 30
87.25254037844002
 11
48.87416697508023
 21
48.5
 31
87.25254037844002
  0
LINE
  5
266
330
15E
100
AcDbEntity
  8
Layer 01
100
AcDbLine
 10
49.34999999999997
 20
49.99999999999999
 30
85.47670735352024
 11
49.34999999999997
 21
48.5
 31
85.47670735352024
  0
ARC
  5
267
330
15E
100
AcDbEntity
  8
Layer 01
100
AcDbCircle
 10
40.67366430758
 20
91.35454576426
 30
-49.25
 40
1.299999999999999
210
0.0
220
-1.0
230
0.0
100
AcDbArc
 50
240.0000000000051
 51
60.00000000000512
  0
LINE
  5
268
330
15E
100
AcDbEntity
  8
Layer 01
100
AcDbLine
 10
41.79949733249975
 20
49.99999999999999
 30
90.70454576425998
 11
41.79949733249975
 21
48.5
 31
90.70454576425998
  0
LINE
  5
269
330
15E
100
AcDbEntity
  8
Layer 01
100
AcDbLine
 10
41.32366430758002
 20
49.99999999999999
 30
92.48037878917975
 11
41.32366430758002
 21
48.5
 31
92.48037878917975
  0
ARC
  5
26A
330
15E
100
AcDbEntity
  8
Layer 01
100
AcDbCircle
 10
40.67366430758
 20
91.35454576426
 30
-49.25
 40
1.299999999999999
210
0.0
220
-1.0
230
0.0
100
AcDbArc
 50
60.00000000000485
 51
240.0000000000051
  0
LINE
  5
26B
330
15E
100
AcDbEntity
  8
Layer 01
100
AcDbLine
 10
39.54783128266024
 20
49.99999999999999
 30
92.00454576426002
 11
39.54783128266024
 21
48.5
 31
92.00454576426002
  0
LINE
  5
26C
330
15E
100
AcDbEntity
  8
Layer 01
100
AcDbLine
 10
40.02366430757998
 20
49.99999999999999
 30
90.22871273934024
 11
40.02366430757998
 21
48.5
 31
90.22871273934024
  0
ARC
  5
26D
330
15E
100
AcDbEntity
  8
Layer 01
100
AcDbCircle
 10
-52.0
 20
-85.0
 30
-49.25
 40
1.299999999999997
210
0.0
220
-1.0
230
0.0
100
AcDbArc
 50
270.0
 51
90.0
  0
LINE
  5
26E
330
15E
100
AcDbEntity
  8
Layer 01
100
AcDbLine
 10
-50.7
 20
49.99999999999999
 30
-85.0
 11
-50.7
 21
48.5
 31
-85.0
  0
ARC
  5
26F
330
15E
100
AcDbEntity
  8
Layer 01
100
AcDbCircle
 10
-52.0
 20
-85.0
 30
-49.25
 40
1.299999999999997
210
0.0
220
-1.0
230
0.0
100
AcDbArc
 50
90.0
 51
270.0
  0
LINE
  5
270
330
15E
100
AcDbEntity
  8
Layer 01
100
AcDbLine
 10
-53.3
 20
49.99999999999999
 30
-85.0
 11
-53.3
 21
48.5
 31
-85.0
  0
ARC
  5
271
330
15E
100
AcDbEntity
  8
Layer 01
100
AcDbCircle
 10
-18.0
 20
86.0
 30
-49.25
 40
1.299999999999997
210
0.0
220
-1.0
230
0.0
100
AcDbArc
 50
270.0
 51
90.0
  0
LINE
  5
272
330
15E
100
AcDbEntity
  8
Layer 01
100
AcDbLine
 10
-16.7
 20
49.99999999999999
 30
86.0
 11
-16.7
 21
48.5
 31
86.0
  0
ARC
  5
273
330
15E
100
AcDbEntity
  8
Layer 01
100
AcDbCircle
 10
-18.0
 20
86.0
 30
-49.25
 40
1.299999999999997
210
0.0
220
-1.0
230
0.0
100
AcDbArc
 50
90.0
 51
270.0
  0
LINE
  5
274
330
15E
100
AcDbEntity
  8
Layer 01
100
AcDbLine
 10
-19.3
 20
49.99999999999999
 30
86.0
 11
-19.3
 21
48.5
 31
86.0
  0
ARC
  5
275
330
15E
100
AcDbEntity
  8
Layer 01
100
AcDbCircle
 10
-2.0
 20
-60.0
 30
-49.25
 40
1.299999999999997
210
0.0
220
-1.0
230
0.0
100
AcDbArc
 50
0.0
 51
180.0
  0
LINE
  5
276
330
15E
100
AcDbEntity
  8
Layer 01
100
AcDbLine
 10
-2.0
 20
49.99999999999999
 30
-58.7
 11
-2.0
 21
48.5
 31
-58.7
  0
ARC
  5
277
330
15E
100
AcDbEntity
  8
Layer 01
100
AcDbCircle
 10
-2.0
 20
-60.0
 30
-49.25
 40
1.299999999999997
210
0.0
220
-1.0
230
0.0
100
AcDbArc
 50
180.0
 51
0.0
  0
LINE
  5
278
330
15E
100
AcDbEntity
  8
Layer 01
100
AcDbLine
 10
-2.0
 20
49.99999999999999
 30
-61.3
 11
-2.0
 21
48.5
 31
-61.3
  0
ARC
  5
279
330
15E
100
AcDbEntity
  8
Layer 01
100
AcDbCircle
 10
28.0
 20
-60.0
 30
-49.25
 40
1.299999999999997
210
0.0
220
-1.0
230
0.0
100
AcDbArc
 50
0.0
 51
180.0
  0
LINE
  5
27A
330
15E
100
AcDbEntity
  8
Layer 01
100
AcDbLine
 10
28.0
 20
49.99999999999999
 30
-58.7
 11
28.0
 21
48.5
 31
-58.7
  0
ARC
  5
27B
330
15E
100
AcDbEntity
  8
Layer 01
100
AcDbCircle
 10
28.0
 20
-60.0
 30
-49.25
 40
1.299999999999997
210
0.0
220
-1.0
230
0.0
100
AcDbArc
 50
180.0
 51
0.0
  0
LINE
  5
27C
330
15E
100
AcDbEntity
  8
Layer 01
100
AcDbLine
 10
28.0
 20
49.99999999999999
 30
-61.3
 11
28.0
 21
48.5
 31
-61.3
  0
ARC
  5
27D
330
15E
100
AcDbEntity
  8
Layer 01
100
AcDbCircle
 10
-2.0
 20
60.0
 30
-49.25
 40
1.299999999999997
210
0.0
220
-1.0
230
0.0
100
AcDbArc
 50
0.0
 51
180.0
  0
LINE
  5
27E
330
15E
100
AcDbEntity
  8
Layer 01
100
AcDbLine
 10
-2.0
 20
49.99999999999999
 30
61.3
 11
-2.0
 21
48.5
 31
61.3
  0
ARC
  5
27F
330
15E
100
AcDbEntity
  8
Layer 01
100
AcDbCircle
 10
-2.0
 20
60.0
 30
-49.25
 40
1.299999999999997
210
0.0
220
-1.0
230
0.0
100
AcDbArc
 50
180.0
 51
0.0
  0
LINE
  5
280
330
15E
100
AcDbEntity
  8
Layer 01
100
AcDbLine
 10
-2.0
 20
49.99999999999999
 30
58.7
 11
-2.0
 21
48.5
 31
58.7
  0
ARC
  5
281
330
15E
100
AcDbEntity
  8
Layer 01
100
AcDbCircle
 10
-8.0
 20
95.0
 30
-49.25
 40
1.299999999999997
210
0.0
220
-1.0
230
0.0
100
AcDbArc
 50
0.0
 51
180.0
  0
LINE
  5
282
330
15E
100
AcDbEntity
  8
Layer 01
100
AcDbLine
 10
-8.0
 20
49.99999999999999
 30
96.3
 11
-8.0
 21
48.5
 31
96.3
  0
ARC
  5
283
330
15E
100
AcDbEntity
  8
Layer 01
100
AcDbCircle
 10
-8.0
 20
95.0
 30
-49.25
 40
1.299999999999997
210
0.0
220
-1.0
230
0.0
100
AcDbArc
 50
180.0
 51
0.0
  0
LINE
  5
284
330
15E
100
AcDbEntity
  8
Layer 01
100
AcDbLine
 10
-8.0
 20
49.99999999999999
 30
93.7
 11
-8.0
 21
48.5
 31
93.7
  0
ARC
  5
285
330
15E
100
AcDbEntity
  8
Layer 01
100
AcDbCircle
 10
8.0
 20
95.0
 30
-49.25
 40
1.299999999999997
210
0.0
220
-1.0
230
0.0
100
AcDbArc
 50
0.0
 51
180.0
  0
LINE
  5
286
330
15E
100
AcDbEntity
  8
Layer 01
100
AcDbLine
 10
8.0
 20
49.99999999999999
 30
96.3
 11
8.0
 21
48.5
 31
96.3
  0
ARC
  5
287
330
15E
100
AcDbEntity
  8
Layer 01
100
AcDbCircle
 10
8.0
 20
95.0
 30
-49.25
 40
1.299999999999997
210
0.0
220
-1.0
230
0.0
100
AcDbArc
 50
180.0
 51
0.0
  0
LINE
  5
288
330
15E
100
AcDbEntity
  8
Layer 01
100
AcDbLine
 10
8.0
 20
49.99999999999999
 30
93.7
 11
8.0
 21
48.5
 31
93.7
  0
ARC
  5
289
330
15E
100
AcDbEntity
  8
Layer 01
100
AcDbCircle
 10
-7.0
 20
-82.0
 30
-49.25
 40
1.299999999999997
210
0.0
220
-1.0
230
0.0
100
AcDbArc
 50
0.0
 51
180.0
  0
LINE
  5
28A
330
15E
100
AcDbEntity
  8
Layer 01
100
AcDbLine
 10
-7.0
 20
49.99999999999999
 30
-80.7
 11
-7.0
 21
48.5
 31
-80.7
  0
ARC
  5
28B
330
15E
100
AcDbEntity
  8
Layer 01
100
AcDbCircle
 10
-7.0
 20
-82.0
 30
-49.25
 40
1.299999999999997
210
0.0
220
-1.0
230
0.0
100
AcDbArc
 50
180.0
 51
0.0
  0
LINE
  5
28C
330
15E
100
AcDbEntity
  8
Layer 01
100
AcDbLine
 10
-7.0
 20
49.99999999999999
 30
-83.3
 11
-7.0
 21
48.5
 31
-83.3
  0
ARC
  5
28D
330
15E
100
AcDbEntity
  8
Layer 01
100
AcDbCircle
 10
0.0
 20
0.0
 30
-49.25
 40
7.5
210
0.0
220
-1.0
230
0.0
100
AcDbArc
 50
90.0
 51
270.0
  0
LINE
  5
28E
330
15E
100
AcDbEntity
  8
Layer 01
100
AcDbLine
 10
-7.5
 20
49.99999999999999
 30
0.0
 11
-7.5
 21
48.5
 31
0.0
  0
ARC
  5
28F
330
15E
100
AcDbEntity
  8
Layer 01
100
AcDbCircle
 10
0.0
 20
0.0
 30
-49.25
 40
7.5
210
0.0
220
-1.0
230
0.0
100
AcDbArc
 50
270.0
 51
89.99999999999999
  0
LINE
  5
290
330
15E
100
AcDbEntity
  8
Layer 01
100
AcDbLine
 10
7.5
 20
49.99999999999999
 30
0.0
 11
7.5
 21
48.5
 31
0.0
  0
ARC
  5
291
330
15E
100
AcDbEntity
  8
Layer 01
100
AcDbCircle
 10
-78.34813893174
 20
51.5
 30
-23.94076167198
 40
3.0
100
AcDbArc
 50
200.7123719548428
 51
270.0
  0
ARC
  5
292
330
15E
100
AcDbEntity
  8
Layer 01
100
AcDbCircle
 10
100.34813893174
 20
51.5
 30
23.94076167198
 40
3.0
210
0.0
220
0.0
230
-1.0
100
AcDbArc
 50
200.7123719548428
 51
270.0
  0
LINE
  5
293
330
15E
100
AcDbEntity
  8
Layer 01
100
AcDbLine
 10
-96.75119045582504
 20
52.53051524084002
 30
-23.94076167198
 11
-97.54203588357082
 21
50.43896951832032
 31
-23.94076167198
  0
LINE
  5
294
330
15E
100
AcDbEntity
  8
Layer 01
100
AcDbLine
 10
-81.94508740765494
 20
52.53051524084002
 30
-23.94076167198
 11
-81.15424197990919
 21
50.43896951832032
 31
-23.94076167198
  0
ARC
  5
295
330
15E
100
AcDbEntity
  8
Layer 01
100
AcDbCircle
 10
-83.34813893174
 20
52.0
 30
-23.94076167198
 40
1.5
100
AcDbArc
 50
20.71237195484279
 51
90.0
  0
LINE
  5
296
330
15E
100
AcDbEntity
  8
Layer 01
100
AcDbLine
 10
-95.34813893174
 20
53.5
 30
-23.94076167198
 11
-92.09813893174
 21
53.5
 31
-23.94076167198
  0
LINE
  5
297
330
15E
100
AcDbEntity
  8
Layer 01
100
AcDbLine
 10
-86.59813893174
 20
53.5
 30
-23.94076167198
 11
-83.34813893174
 21
53.5
 31
-23.94076167198
  0
LINE
  5
298
330
15E
100
AcDbEntity
  8
Layer 01
100
AcDbLine
 10
-89.34813893173998
 20
53.5
 30
-17.94076167198
 11
-89.34813893173998
 21
53.5
 31
-21.19076167198001
  0
LINE
  5
299
330
15E
100
AcDbEntity
  8
Layer 01
100
AcDbLine
 10
-89.34813893173998
 20
53.5
 30
-26.69076167198
 11
-89.34813893173998
 21
53.5
 31
-29.94076167198
  0
ARC
  5
29A
330
15E
100
AcDbEntity
  8
Layer 01
100
AcDbCircle
 10
-89.34813893174
 20
-23.94076167198
 30
-54.25
 40
2.75
210
0.0
220
-1.0
230
0.0
100
AcDbArc
 50
0.0
 51
180.0
  0
LINE
  5
29B
330
15E
100
AcDbEntity
  8
Layer 01
100
AcDbLine
 10
-89.34813893174
 20
55.0
 30
-21.19076167198
 11
-89.34813893174
 21
53.5
 31
-21.19076167198
  0
LINE
  5
29C
330
15E
100
AcDbEntity
  8
Layer 01
100
AcDbLine
 10
-95.34813893174
 20
55.0
 30
-23.94076167198
 11
-92.09813893174
 21
55.0
 31
-23.94076167198
  0
LINE
  5
29D
330
15E
100
AcDbEntity
  8
Layer 01
100
AcDbLine
 10
-86.59813893174
 20
55.0
 30
-23.94076167198
 11
-83.34813893174
 21
55.0
 31
-23.94076167198
  0
LINE
  5
29E
330
15E
100
AcDbEntity
  8
Layer 01
100
AcDbLine
 10
-89.34813893173998
 20
55.0
 30
-17.94076167198
 11
-89.34813893173998
 21
55.0
 31
-21.19076167198001
  0
LINE
  5
29F
330
15E
100
AcDbEntity
  8
Layer 01
100
AcDbLine
 10
-89.34813893173998
 20
55.0
 30
-26.69076167198
 11
-89.34813893173998
 21
55.0
 31
-29.94076167198
  0
ARC
  5
2A0
330
15E
100
AcDbEntity
  8
Layer 01
100
AcDbCircle
 10
-89.34813893174
 20
-23.94076167198
 30
-54.25
 40
2.75
210
0.0
220
-1.0
230
0.0
100
AcDbArc
 50
180.0
 51
0.0
  0
LINE
  5
2A1
330
15E
100
AcDbEntity
  8
Layer 01
100
AcDbLine
 10
-89.34813893174
 20
55.0
 30
-26.69076167198
 11
-89.34813893174
 21
53.5
 31
-26.69076167198
  0
ARC
  5
2A2
330
15E
100
AcDbEntity
  8
Layer 01
100
AcDbCircle
 10
-83.34813893174
 20
52.0
 30
-23.94076167198
 40
3.0
100
AcDbArc
 50
20.71237195484279
 51
90.0
  0
ARC
  5
2A3
330
15E
100
AcDbEntity
  8
Layer 01
100
AcDbCircle
 10
95.34813893174
 20
52.0
 30
23.94076167198
 40
3.0
210
0.0
220
0.0
230
-1.0
100
AcDbArc
 50
20.71237195484279
 51
90.0
  0
LINE
  5
2A4
330
15E
100
AcDbEntity
  8
Layer 01
100
AcDbLine
 10
-98.15424197990916
 20
53.06103048167968
 30
-23.94076167198
 11
-98.94508740765494
 21
50.96948475915998
 31
-23.94076167198
  0
LINE
  5
2A5
330
15E
100
AcDbEntity
  8
Layer 01
100
AcDbLine
 10
-80.54203588357083
 20
53.06103048167968
 30
-23.94076167198
 11
-79.75119045582505
 21
50.96948475915998
 31
-23.94076167198
  0
ARC
  5
2A6
330
15E
100
AcDbEntity
  8
Layer 01
100
AcDbCircle
 10
-78.34813893174
 20
51.5
 30
-23.94076167198
 40
1.5
100
AcDbArc
 50
200.7123719548428
 51
270.0
  0
ARC
  5
2A7
330
15E
100
AcDbEntity
  8
Layer 01
100
AcDbCircle
 10
100.34813893174
 20
51.5
 30
23.94076167198
 40
1.5
210
0.0
220
0.0
230
-1.0
100
AcDbArc
 50
200.7123719548428
 51
270.0
  0
ARC
  5
2A8
330
15E
100
AcDbEntity
  8
Layer 01
100
AcDbCircle
 10
95.34813893174
 20
52.0
 30
23.94076167198
 40
1.5
210
0.0
220
0.0
230
-1.0
100
AcDbArc
 50
20.71237195484279
 51
90.0
  0
ARC
  5
2A9
330
15E
100
AcDbEntity
  8
Layer 01
100
AcDbCircle
 10
-65.40737725976
 20
-65.40737725976
 30
48.5
 40
11.0
210
0.0
220
1.0
230
0.0
100
AcDbArc
 50
329.9999999999989
 51
351.1830173124474
  0
ARC
  5
2AA
330
15E
100
AcDbEntity
  8
Layer 01
100
AcDbCircle
 10
-51.5
 20
-78.34813893174523
 30
-23.94076167198303
 40
3.0
210
-0.8660254037844289
220
0.0
230
-0.5000000000000168
100
AcDbArc
 50
290.7123719548329
 51
359.9999999999371
  0
ARC
  5
2AB
330
15E
100
AcDbEntity
  8
Layer 01
100
AcDbCircle
 10
-65.40737725976
 20
-65.40737725976
 30
48.5
 40
11.0
210
0.0
220
1.0
230
0.0
100
AcDbArc
 50
308.7433568957059
 51
329.9999999999989
  0
ARC
  5
2AC
330
15E
100
AcDbEntity
  8
Layer 01
100
AcDbCircle
 10
-51.5
 20
34.94076167198303
 30
-89.34813893174521
 40
3.0
210
-0.5000000000000168
220
0.0
230
0.8660254037844289
100
AcDbArc
 50
290.7123719548208
 51
359.9999999998539
  0
ARC
  5
2AD
330
15E
100
AcDbEntity
  8
Layer 01
100
AcDbCircle
 10
51.5
 20
-100.3481389317452
 30
23.94076167198303
 40
3.0
210
0.8660254037844289
220
0.0
230
0.5000000000000168
100
AcDbArc
 50
110.7123719548329
 51
179.9999999999368
  0
LINE
  5
2AE
330
15E
100
AcDbEntity
  8
Layer 01
100
AcDbLine
 10
69.10890302180285
 20
52.53051524083897
 30
-71.81860794514304
 11
69.50432573567545
 21
50.4389695183208
 31
-72.50350017603712
  0
LINE
  5
2AF
330
15E
100
AcDbEntity
  8
Layer 01
100
AcDbLine
 10
61.70585149771714
 20
52.53051524083896
 30
-58.99614657437695
 11
61.31042878384454
 21
50.4389695183208
 31
-58.31125434348287
  0
ARC
  5
2B0
330
15E
100
AcDbEntity
  8
Layer 01
100
AcDbCircle
 10
-65.40737725976
 20
-65.40737725976
 30
53.5
 40
6.0
210
0.0
220
1.0
230
0.0
100
AcDbArc
 50
30.75092326632125
 51
149.9999999999989
  0
ARC
  5
2B1
330
15E
100
AcDbEntity
  8
Layer 01
100
AcDbCircle
 10
-52.0
 20
-83.34813893174521
 30
-23.94076167198303
 40
1.5
210
-0.8660254037844289
220
0.0
230
-0.5000000000000168
100
AcDbArc
 50
110.7123719547993
 51
180.0000000000537
  0
LINE
  5
2B2
330
15E
100
AcDbEntity
  8
Layer 01
100
AcDbLine
 10
68.40737725975671
 20
53.5
 30
-70.6035296824669
 11
66.78237725975424
 21
53.5
 31
-67.7889471201633
  0
LINE
  5
2B3
330
15E
100
AcDbEntity
  8
Layer 01
100
AcDbLine
 10
64.03237725975607
 20
53.5
 30
-63.02580739935227
 11
62.40737725975794
 21
53.5
 31
-60.2112248370562
  0
LINE
  5
2B4
330
15E
100
AcDbEntity
  8
Layer 01
100
AcDbLine
 10
60.21122483705198
 20
53.5
 30
-68.40737725976342
 11
63.02580739935554
 21
53.5
 31
-66.78237725976096
  0
LINE
  5
2B5
330
15E
100
AcDbEntity
  8
Layer 01
100
AcDbLine
 10
67.7889471201666
 20
53.5
 30
-64.03237725976278
 11
70.60352968246269
 21
53.5
 31
-62.40737725976464
  0
ARC
  5
2B6
330
15E
100
AcDbEntity
  8
Layer 01
100
AcDbCircle
 10
65.40737725976
 20
-65.40737725976
 30
-54.25
 40
2.75
210
0.0
220
-1.0
230
0.0
100
AcDbArc
 50
120.000000000001
 51
300.000000000001
  0
LINE
  5
2B7
330
15E
100
AcDbEntity
  8
Layer 01
100
AcDbLine
 10
63.02580739935281
 20
55.0
 30
-66.78237725976004
 11
63.02580739935281
 21
53.5
 31
-66.78237725976004
  0
LINE
  5
2B8
330
15E
100
AcDbEntity
  8
Layer 01
100
AcDbLine
 10
68.40737725975671
 20
55.0
 30
-70.60352968246688
 11
66.78237725975424
 21
55.0
 31
-67.78894712016331
  0
LINE
  5
2B9
330
15E
100
AcDbEntity
  8
Layer 01
100
AcDbLine
 10
64.03237725975606
 20
55.0
 30
-63.02580739935227
 11
62.40737725975792
 21
55.0
 31
-60.2112248370562
  0
LINE
  5
2BA
330
15E
100
AcDbEntity
  8
Layer 01
100
AcDbLine
 10
60.21122483705198
 20
55.0
 30
-68.40737725976342
 11
63.02580739935554
 21
55.0
 31
-66.78237725976096
  0
LINE
  5
2BB
330
15E
100
AcDbEntity
  8
Layer 01
100
AcDbLine
 10
67.78894712016661
 20
55.0
 30
-64.03237725976278
 11
70.60352968246269
 21
55.0
 31
-62.40737725976464
  0
ARC
  5
2BC
330
15E
100
AcDbEntity
  8
Layer 01
100
AcDbCircle
 10
65.40737725976003
 20
-65.40737725975922
 30
-54.25000000000093
 40
2.750000000000007
210
0.0
220
-1.0
230
1.421085471520200E-14
100
AcDbArc
 50
300.0000000000745
 51
119.999999999979
  0
LINE
  5
2BD
330
15E
100
AcDbEntity
  8
Layer 01
100
AcDbLine
 10
67.78894712016721
 20
55.00000000000001
 30
-64.03237725975994
 11
67.78894712016722
 21
53.50000000000001
 31
-64.03237725975994
  0
ARC
  5
2BE
330
15E
100
AcDbEntity
  8
Layer 01
100
AcDbCircle
 10
-65.40737725976
 20
-65.40737725976
 30
55.0
 40
6.0
210
0.0
220
1.0
230
0.0
100
AcDbArc
 50
30.75092326631566
 51
149.9999999999989
  0
ARC
  5
2BF
330
15E
100
AcDbEntity
  8
Layer 01
100
AcDbCircle
 10
-52.0
 20
-83.34813893174521
 30
-23.94076167198303
 40
3.0
210
-0.8660254037844289
220
0.0
230
-0.5000000000000168
100
AcDbArc
 50
110.7123719548651
 51
180.0000000000271
  0
ARC
  5
2C0
330
15E
100
AcDbEntity
  8
Layer 01
100
AcDbCircle
 10
-65.40737725976
 20
-65.40737725976
 30
55.0
 40
6.0
210
0.0
220
1.0
230
0.0
100
AcDbArc
 50
149.9999999999683
 51
269.4032021978574
  0
ARC
  5
2C1
330
15E
100
AcDbEntity
  8
Layer 01
100
AcDbCircle
 10
-52.0
 20
29.94076167198303
 30
-89.34813893174523
 40
3.0
210
-0.5000000000000168
220
0.0
230
0.8660254037844289
100
AcDbArc
 50
110.7123719548773
 51
180.0000000001096
  0
ARC
  5
2C2
330
15E
100
AcDbEntity
  8
Layer 01
100
AcDbCircle
 10
52.0
 20
-95.34813893174521
 30
23.94076167198303
 40
3.0
210
0.8660254037844289
220
0.0
230
0.5000000000000168
100
AcDbArc
 50
290.7123719548649
 51
0.0000000000268693
  0
LINE
  5
2C3
330
15E
100
AcDbEntity
  8
Layer 01
100
AcDbLine
 10
69.81042878384453
 20
53.06103048168077
 30
-73.03368620781765
 11
70.20585149771767
 21
50.96948475915974
 31
-73.71857843871268
  0
LINE
  5
2C4
330
15E
100
AcDbEntity
  8
Layer 01
100
AcDbLine
 10
61.00432573567547
 20
53.06103048168077
 30
-57.78106831170235
 11
60.60890302180232
 21
50.96948475915975
 31
-57.09617608080731
  0
ARC
  5
2C5
330
15E
100
AcDbEntity
  8
Layer 01
100
AcDbCircle
 10
-65.40737725976
 20
-65.40737725976
 30
50.0
 40
11.0
210
0.0
220
1.0
230
0.0
100
AcDbArc
 50
329.9999999999989
 51
351.2059369202215
  0
ARC
  5
2C6
330
15E
100
AcDbEntity
  8
Layer 01
100
AcDbCircle
 10
-51.5
 20
-78.34813893174523
 30
-23.94076167198303
 40
1.5
210
-0.8660254037844289
220
0.0
230
-0.5000000000000168
100
AcDbArc
 50
290.7123719548523
 51
359.999999999874
  0
ARC
  5
2C7
330
15E
100
AcDbEntity
  8
Layer 01
100
AcDbCircle
 10
-65.40737725976
 20
-65.40737725976
 30
50.0
 40
11.0
210
0.0
220
1.0
230
0.0
100
AcDbArc
 50
308.6924514931225
 51
329.9999999999989
  0
ARC
  5
2C8
330
15E
100
AcDbEntity
  8
Layer 01
100
AcDbCircle
 10
-51.5
 20
34.94076167198303
 30
-89.34813893174521
 40
1.5
210
-0.5000000000000168
220
0.0
230
0.8660254037844289
100
AcDbArc
 50
290.7123719548274
 51
359.9999999997077
  0
ARC
  5
2C9
330
15E
100
AcDbEntity
  8
Layer 01
100
AcDbCircle
 10
51.5
 20
-100.3481389317452
 30
23.94076167198303
 40
1.5
210
0.8660254037844289
220
0.0
230
0.5000000000000168
100
AcDbArc
 50
110.7123719548521
 51
179.9999999998736
  0
ARC
  5
2CA
330
15E
100
AcDbEntity
  8
Layer 01
100
AcDbCircle
 10
-65.40737725976
 20
-65.40737725976
 30
53.5
 40
6.0
210
0.0
220
1.0
230
0.0
100
AcDbArc
 50
149.9999999999683
 51
269.4062147471941
  0
ARC
  5
2CB
330
15E
100
AcDbEntity
  8
Layer 01
100
AcDbCircle
 10
-52.0
 20
29.94076167198303
 30
-89.34813893174523
 40
1.5
210
-0.5000000000000168
220
0.0
230
0.8660254037844289
100
AcDbArc
 50
110.7123719548238
 51
180.0000000002193
  0
ARC
  5
2CC
330
15E
100
AcDbEntity
  8
Layer 01
100
AcDbCircle
 10
52.0
 20
-95.34813893174521
 30
23.94076167198303
 40
1.5
210
0.8660254037844289
220
0.0
230
0.5000000000000168
100
AcDbArc
 50
290.7123719547992
 51
0.0000000000537387
  0
ARC
  5
2CD
330
15E
100
AcDbEntity
  8
Layer 01
100
AcDbCircle
 10
-23.94076167198
 20
89.34813893174
 30
48.5
 40
11.0
210
0.0
220
1.0
230
0.0
100
AcDbArc
 50
210.0000000000011
 51
30.00000000000111
  0
ARC
  5
2CE
330
15E
100
AcDbEntity
  8
Layer 01
100
AcDbCircle
 10
51.5
 20
78.34813893173778
 30
-23.94076167198823
 40
3.0
210
0.8660254037844289
220
0.0
230
-0.5000000000000168
100
AcDbArc
 50
110.7123719548329
 51
180.0000000000193
  0
ARC
  5
2CF
330
15E
100
AcDbEntity
  8
Layer 01
100
AcDbCircle
 10
-23.94076167198
 20
89.34813893174
 30
48.5
 40
11.0
210
0.0
220
1.0
230
0.0
100
AcDbArc
 50
29.99999999999905
 51
210.0000000000011
  0
ARC
  5
2D0
330
15E
100
AcDbEntity
  8
Layer 01
100
AcDbCircle
 10
-51.5
 20
34.94076167198823
 30
-89.3481389317378
 40
3.0
210
-0.5000000000000168
220
0.0
230
-0.8660254037844289
100
AcDbArc
 50
290.7123719547869
 51
0.0000000000195413
  0
ARC
  5
2D1
330
15E
100
AcDbEntity
  8
Layer 01
100
AcDbCircle
 10
-51.5
 20
100.3481389317378
 30
23.94076167198823
 40
3.0
210
-0.8660254037844289
220
0.0
230
0.5000000000000168
100
AcDbArc
 50
290.712371954833
 51
0.0000000000195413
  0
LINE
  5
2D2
330
15E
100
AcDbEntity
  8
Layer 01
100
AcDbLine
 10
27.6422874340227
 20
52.53051524083979
 30
95.75936961712277
 11
28.03771014789546
 21
50.43896951832079
 31
96.44426184801713
  0
LINE
  5
2D3
330
15E
100
AcDbEntity
  8
Layer 01
100
AcDbLine
 10
17.5295309865977
 20
52.53051524084122
 30
93.04966469378243
 11
16.8446387557036
 21
50.43896951832306
 31
93.44508740765502
  0
LINE
  5
2D4
330
15E
100
AcDbEntity
  8
Layer 01
100
AcDbLine
 10
20.23923590993731
 20
52.53051524083978
 30
82.93690824635723
 11
19.84381319606454
 21
50.43896951832078
 31
82.25201601546286
  0
LINE
  5
2D5
330
15E
100
AcDbEntity
  8
Layer 01
100
AcDbLine
 10
30.35199235736324
 20
52.53051524083835
 30
85.64661316969703
 11
30.92740367402564
 21
50.77330582340534
 31
85.31439929112722
  0
ARC
  5
2D6
330
15E
100
AcDbEntity
  8
Layer 01
100
AcDbCircle
 10
-23.94076167198
 20
89.34813893174
 30
53.5
 40
6.0
210
0.0
220
1.0
230
0.0
100
AcDbArc
 50
270.6216659827555
 51
30.00000000000109
  0
ARC
  5
2D7
330
15E
100
AcDbEntity
  8
Layer 01
100
AcDbCircle
 10
52.0
 20
17.94076167198824
 30
89.34813893173778
 40
1.5
210
0.5000000000000168
220
0.0
230
0.8660254037844289
100
AcDbArc
 50
290.7123719547745
 51
359.9999999998886
  0
ARC
  5
2D8
330
15E
100
AcDbEntity
  8
Layer 01
100
AcDbCircle
 10
52.0
 20
83.34813893173778
 30
-23.94076167198824
 40
1.5
210
0.8660254037844289
220
0.0
230
-0.5000000000000168
100
AcDbArc
 50
290.7123719548328
 51
0.0000000000542815
  0
LINE
  5
2D9
330
15E
100
AcDbEntity
  8
Layer 01
100
AcDbLine
 10
26.94076167198208
 20
53.5
 30
94.54429135444381
 11
25.31576167198394
 21
53.5
 31
91.72970879214773
  0
LINE
  5
2DA
330
15E
100
AcDbEntity
  8
Layer 01
100
AcDbLine
 10
22.56576167198145
 20
53.5
 30
86.96656907132922
 11
20.94076167198331
 21
53.5
 31
84.15198650903315
  0
LINE
  5
2DB
330
15E
100
AcDbEntity
  8
Layer 01
100
AcDbLine
 10
29.13691409468804
 20
53.5
 30
86.34813893173659
 11
26.32233153238817
 21
53.5
 31
87.97313893173691
  0
LINE
  5
2DC
330
15E
100
AcDbEntity
  8
Layer 01
100
AcDbLine
 10
21.55919181156966
 20
53.5
 30
90.7231389317394
 11
18.74460924927734
 21
53.5
 31
92.34813893173538
  0
ARC
  5
2DD
330
15E
100
AcDbEntity
  8
Layer 01
100
AcDbCircle
 10
23.94076167197998
 20
89.34813893173843
 30
-54.25000000000257
 40
2.750000000000008
210
0.0
220
-1.0
230
-2.842170943040401E-14
100
AcDbArc
 50
240.000000000014
 51
60.00000000002176
  0
LINE
  5
2DE
330
15E
100
AcDbEntity
  8
Layer 01
100
AcDbLine
 10
26.32233153238717
 20
55.00000000000004
 30
87.97313893173995
 11
26.32233153238717
 21
53.50000000000004
 31
87.9731389317399
  0
LINE
  5
2DF
330
15E
100
AcDbEntity
  8
Layer 01
100
AcDbLine
 10
25.31576167198003
 20
55.0
 30
91.72970879214716
 11
25.31576167198005
 21
53.5
 31
91.72970879214714
  0
LINE
  5
2E0
330
15E
100
AcDbEntity
  8
Layer 01
100
AcDbLine
 10
26.94076167198208
 20
55.0
 30
94.5442913544438
 11
25.31576167198394
 21
55.0
 31
91.72970879214773
  0
LINE
  5
2E1
330
15E
100
AcDbEntity
  8
Layer 01
100
AcDbLine
 10
22.56576167198143
 20
55.0
 30
86.96656907132919
 11
20.94076167198331
 21
55.0
 31
84.15198650903315
  0
LINE
  5
2E2
330
15E
100
AcDbEntity
  8
Layer 01
100
AcDbLine
 10
29.13691409468803
 20
55.0
 30
86.34813893173659
 11
26.32233153238817
 21
55.0
 31
87.97313893173691
  0
LINE
  5
2E3
330
15E
100
AcDbEntity
  8
Layer 01
100
AcDbLine
 10
21.55919181156966
 20
55.0
 30
90.7231389317394
 11
18.74460924927734
 21
55.0
 31
92.34813893173538
  0
ARC
  5
2E4
330
15E
100
AcDbEntity
  8
Layer 01
100
AcDbCircle
 10
23.94076167198
 20
89.34813893173998
 30
-54.25000000000001
 40
2.750000000000008
210
0.0
220
-1.0
230
0.0
100
AcDbArc
 50
60.00000000001405
 51
239.9999999999987
  0
LINE
  5
2E5
330
15E
100
AcDbEntity
  8
Layer 01
100
AcDbLine
 10
21.55919181157282
 20
55.0
 30
90.72313893174004
 11
21.55919181157282
 21
53.5
 31
90.72313893174004
  0
ARC
  5
2E6
330
15E
100
AcDbEntity
  8
Layer 01
100
AcDbCircle
 10
-23.94076167198
 20
89.34813893174
 30
55.0
 40
6.0
210
0.0
220
1.0
230
0.0
100
AcDbArc
 50
270.6216659827555
 51
30.00000000000109
  0
ARC
  5
2E7
330
15E
100
AcDbEntity
  8
Layer 01
100
AcDbCircle
 10
52.0
 20
17.94076167198824
 30
89.34813893173778
 40
3.0
210
0.5000000000000168
220
0.0
230
0.8660254037844289
100
AcDbArc
 50
318.7222641432738
 51
359.9999999999443
  0
ARC
  5
2E8
330
15E
100
AcDbEntity
  8
Layer 01
100
AcDbCircle
 10
52.0
 20
83.34813893173778
 30
-23.94076167198824
 40
3.0
210
0.8660254037844289
220
0.0
230
-0.5000000000000168
100
AcDbArc
 50
290.712371954865
 51
0.0000000000271407
  0
ARC
  5
2E9
330
15E
100
AcDbEntity
  8
Layer 01
100
AcDbCircle
 10
-23.94076167198
 20
89.34813893174
 30
55.0
 40
6.0
210
0.0
220
1.0
230
0.0
100
AcDbArc
 50
30.0000000000318
 51
149.3602624564395
  0
ARC
  5
2EA
330
15E
100
AcDbEntity
  8
Layer 01
100
AcDbCircle
 10
-52.0
 20
29.94076167198824
 30
-89.34813893173778
 40
3.0
210
-0.5000000000000168
220
0.0
230
-0.8660254037844289
100
AcDbArc
 50
110.7123719549111
 51
111.3201581658339
  0
ARC
  5
2EB
330
15E
100
AcDbEntity
  8
Layer 01
100
AcDbCircle
 10
-52.0
 20
95.34813893173778
 30
23.94076167198824
 40
3.0
210
-0.8660254037844289
220
0.0
230
0.5000000000000168
100
AcDbArc
 50
110.712371954865
 51
180.0000000000269
  0
LINE
  5
2EC
330
15E
100
AcDbEntity
  8
Layer 01
100
AcDbLine
 10
28.34381319606452
 20
53.06103048168077
 30
96.97444787979765
 11
28.73923590993783
 21
50.96948475915892
 31
97.65934011069294
  0
LINE
  5
2ED
330
15E
100
AcDbEntity
  8
Layer 01
100
AcDbLine
 10
19.53771014789547
 20
53.06103048168077
 30
81.72182998368234
 11
19.14228743402217
 21
50.96948475915892
 31
81.03693775278705
  0
ARC
  5
2EE
330
15E
100
AcDbEntity
  8
Layer 01
100
AcDbCircle
 10
-23.94076167198
 20
89.34813893174
 30
50.0
 40
11.0
210
0.0
220
1.0
230
0.0
100
AcDbArc
 50
209.9999999999991
 51
30.00000000000111
  0
ARC
  5
2EF
330
15E
100
AcDbEntity
  8
Layer 01
100
AcDbCircle
 10
51.5
 20
12.94076167198824
 30
89.34813893173778
 40
1.5
210
0.5000000000000168
220
0.0
230
0.8660254037844289
100
AcDbArc
 50
110.7123719549444
 51
180.0000000000387
  0
ARC
  5
2F0
330
15E
100
AcDbEntity
  8
Layer 01
100
AcDbCircle
 10
51.5
 20
78.34813893173778
 30
-23.94076167198823
 40
1.5
210
0.8660254037844289
220
0.0
230
-0.5000000000000168
100
AcDbArc
 50
110.7123719548858
 51
180.0000000000385
  0
ARC
  5
2F1
330
15E
100
AcDbEntity
  8
Layer 01
100
AcDbCircle
 10
-23.94076167198
 20
89.34813893174
 30
50.0
 40
11.0
210
0.0
220
1.0
230
0.0
100
AcDbArc
 50
30.00000000000112
 51
210.0000000000011
  0
ARC
  5
2F2
330
15E
100
AcDbEntity
  8
Layer 01
100
AcDbCircle
 10
-51.5
 20
100.3481389317378
 30
23.94076167198823
 40
1.5
210
-0.8660254037844289
220
0.0
230
0.5000000000000168
100
AcDbArc
 50
290.712371954886
 51
0.0000000000390827
  0
ARC
  5
2F3
330
15E
100
AcDbEntity
  8
Layer 01
100
AcDbCircle
 10
-23.94076167198
 20
89.34813893174
 30
53.5
 40
6.0
210
0.0
220
1.0
230
0.0
100
AcDbArc
 50
30.00000000003166
 51
149.3480266530099
  0
ARC
  5
2F4
330
15E
100
AcDbEntity
  8
Layer 01
100
AcDbCircle
 10
-52.0
 20
95.34813893173778
 30
23.94076167198824
 40
1.5
210
-0.8660254037844289
220
0.0
230
0.5000000000000168
100
AcDbArc
 50
110.7123719548328
 51
180.0000000000537
  0
ENDBLK
  5
2F6
330
15E
100
AcDbEntity
  8
0
100
AcDbBlockEnd
  0
BLOCK
  5
369
330
2F8
100
AcDbEntity
  8
0
100
AcDbBlockBegin
  2
D8107216_COP-ROSONE-720
 70
     0
 10
0.0
 20
0.0
 30
0.0
  3
D8107216_COP-ROSONE-720
  1

  0
SPLINE
  5
2F9
330
2F8
100
AcDbEntity
  8
Layer 01
100
AcDbSpline
210
0.0
220
0.0
230
1.0
 70
    24
 71
     2
 72
     6
 73
     3
 74
     0
 42
0.000000001
 43
0.0000000001
 40
-3.9117676579
 40
-3.9117676579
 40
-3.9117676579
 40
0.0
 40
0.0
 40
0.0
 10
-4.0
 20
0.8
 30
-110.9316039401
 10
-4.0
 20
0.8
 30
-112.88748776905
 10
-4.0
 20
0.8
 30
-114.843371598
  0
SPLINE
  5
2FA
330
2F8
100
AcDbEntity
  8
Layer 01
100
AcDbSpline
210
0.0
220
0.0
230
1.0
 70
    24
 71
     2
 72
     6
 73
     3
 74
     0
 42
0.000000001
 43
0.0000000001
 40
-0.5
 40
-0.5
 40
-0.5
 40
0.0
 40
0.0
 40
0.0
 10
-3.5
 20
0.8
 30
-110.9316039401
 10
-3.75
 20
0.8
 30
-110.9316039401
 10
-4.0
 20
0.8
 30
-110.9316039401
  0
SPLINE
  5
2FB
330
2F8
100
AcDbEntity
  8
Layer 01
100
AcDbSpline
210
0.0
220
0.0
230
1.0
 70
    24
 71
     2
 72
     6
 73
     3
 74
     0
 42
0.000000001
 43
0.0000000001
 40
-7.0
 40
-7.0
 40
-7.0
 40
0.0
 40
0.0
 40
0.0
 10
3.5
 20
0.8
 30
-110.9316039401
 10
0.0
 20
0.8
 30
-110.9316039401
 10
-3.5
 20
0.8
 30
-110.9316039401
  0
SPLINE
  5
2FC
330
2F8
100
AcDbEntity
  8
Layer 01
100
AcDbSpline
210
0.0
220
0.0
230
1.0
 70
    24
 71
     2
 72
     6
 73
     3
 74
     0
 42
0.000000001
 43
0.0000000001
 40
-0.5
 40
-0.5
 40
-0.5
 40
0.0
 40
0.0
 40
0.0
 10
4.0
 20
0.8
 30
-110.9316039401
 10
3.75
 20
0.8
 30
-110.9316039401
 10
3.5
 20
0.8
 30
-110.9316039401
  0
SPLINE
  5
2FD
330
2F8
100
AcDbEntity
  8
Layer 01
100
AcDbSpline
210
0.0
220
0.0
230
1.0
 70
    24
 71
     2
 72
     6
 73
     3
 74
     0
 42
0.000000001
 43
0.0000000001
 40
-3.9117676579
 40
-3.9117676579
 40
-3.9117676579
 40
0.0
 40
0.0
 40
0.0
 10
4.0
 20
0.8
 30
-114.843371598
 10
4.0
 20
0.8
 30
-112.88748776905
 10
4.0
 20
0.8
 30
-110.9316039401
  0
ARC
  5
2FE
330
2F8
100
AcDbEntity
  8
Layer 01
100
AcDbCircle
 10
-0.0000000000000147
 20
-0.0000000027903297
 30
0.8
 40
116.9999999972058
210
0.0
220
1.0
230
0.0
100
AcDbArc
 50
272.9907029067361
 51
267.0092970932639
  0
ARC
  5
2FF
330
2F8
100
AcDbEntity
  8
Layer 01
100
AcDbCircle
 10
6.000000000007992
 20
-114.843371598
 30
0.8
 40
2.000000000007992
210
0.0
220
1.0
230
0.0
100
AcDbArc
 50
180.0
 51
272.9907029064246
  0
SPLINE
  5
300
330
2F8
100
AcDbEntity
  8
Layer 01
100
AcDbSpline
210
0.0
220
0.0
230
1.0
 70
    24
 71
     2
 72
     6
 73
     3
 74
     0
 42
0.000000001
 43
0.0000000001
 40
-0.8
 40
-0.8
 40
-0.8
 40
0.0
 40
0.0
 40
0.0
 10
-6.104347826087012
 20
0.0
 30
-116.8406476258
 10
-6.104347826087012
 20
0.4
 30
-116.8406476258
 10
-6.104347826087012
 20
0.8
 30
-116.8406476258
  0
ARC
  5
301
330
2F8
100
AcDbEntity
  8
Layer 01
100
AcDbCircle
 10
6.000000000007992
 20
-114.843371598
 30
0.0
 40
2.000000000007992
210
0.0
220
1.0
230
0.0
100
AcDbArc
 50
180.0
 51
272.9907029064246
  0
SPLINE
  5
302
330
2F8
100
AcDbEntity
  8
Layer 01
100
AcDbSpline
210
0.0
220
0.0
230
1.0
 70
    24
 71
     2
 72
     6
 73
     3
 74
     0
 42
0.000000001
 43
0.0000000001
 40
-0.8
 40
-0.8
 40
-0.8
 40
0.0
 40
0.0
 40
0.0
 10
-4.0
 20
0.8
 30
-114.843371598
 10
-4.0
 20
0.4
 30
-114.843371598
 10
-4.0
 20
0.0
 30
-114.843371598
  0
SPLINE
  5
303
330
2F8
100
AcDbEntity
  8
Layer 01
100
AcDbSpline
210
0.0
220
0.0
230
1.0
 70
    24
 71
     2
 72
     6
 73
     3
 74
     0
 42
0.000000001
 43
0.0000000001
 40
-0.8
 40
-0.8
 40
-0.8
 40
0.0
 40
0.0
 40
0.0
 10
6.104347826087015
 20
0.0
 30
-116.8406476258
 10
6.104347826087015
 20
0.4
 30
-116.8406476258
 10
6.104347826087015
 20
0.8
 30
-116.8406476258
  0
ARC
  5
304
330
2F8
100
AcDbEntity
  8
Layer 01
100
AcDbCircle
 10
-6.000000000007999
 20
-114.843371598
 30
0.8
 40
2.000000000007999
210
0.0
220
1.0
230
0.0
100
AcDbArc
 50
267.0092970935752
 51
0.0
  0
SPLINE
  5
305
330
2F8
100
AcDbEntity
  8
Layer 01
100
AcDbSpline
210
0.0
220
0.0
230
1.0
 70
    24
 71
     2
 72
     6
 73
     3
 74
     0
 42
0.000000001
 43
0.0000000001
 40
-0.8
 40
-0.8
 40
-0.8
 40
0.0
 40
0.0
 40
0.0
 10
4.0
 20
0.0
 30
-114.843371598
 10
4.0
 20
0.4
 30
-114.843371598
 10
4.0
 20
0.8
 30
-114.843371598
  0
ARC
  5
306
330
2F8
100
AcDbEntity
  8
Layer 01
100
AcDbCircle
 10
-6.000000000007999
 20
-114.843371598
 30
0.0
 40
2.000000000007999
210
0.0
220
1.0
230
0.0
100
AcDbArc
 50
267.0092970935752
 51
0.0
  0
SPLINE
  5
307
330
2F8
100
AcDbEntity
  8
Layer 01
100
AcDbSpline
210
0.0
220
0.0
230
1.0
 70
    24
 71
     2
 72
     6
 73
     3
 74
     0
 42
0.000000001
 43
0.0000000001
 40
-0.8
 40
-0.8
 40
-0.8
 40
0.0
 40
0.0
 40
0.0
 10
4.0
 20
0.0
 30
-110.9316039401
 10
4.0
 20
0.4
 30
-110.9316039401
 10
4.0
 20
0.8
 30
-110.9316039401
  0
SPLINE
  5
308
330
2F8
100
AcDbEntity
  8
Layer 01
100
AcDbSpline
210
0.0
220
0.0
230
1.0
 70
    24
 71
     2
 72
     6
 73
     3
 74
     0
 42
0.000000001
 43
0.0000000001
 40
-3.9117676579
 40
-3.9117676579
 40
-3.9117676579
 40
0.0
 40
0.0
 40
0.0
 10
4.0
 20
0.0
 30
-114.843371598
 10
4.0
 20
0.0
 30
-112.88748776905
 10
4.0
 20
0.0
 30
-110.9316039401
  0
SPLINE
  5
309
330
2F8
100
AcDbEntity
  8
Layer 01
100
AcDbSpline
210
0.0
220
0.0
230
1.0
 70
    24
 71
     2
 72
     6
 73
     3
 74
     0
 42
0.000000001
 43
0.0000000001
 40
-0.8
 40
-0.8
 40
-0.8
 40
0.0
 40
0.0
 40
0.0
 10
3.5
 20
0.0
 30
-110.9316039401
 10
3.5
 20
0.4
 30
-110.9316039401
 10
3.5
 20
0.8
 30
-110.9316039401
  0
SPLINE
  5
30A
330
2F8
100
AcDbEntity
  8
Layer 01
100
AcDbSpline
210
0.0
220
0.0
230
1.0
 70
    24
 71
     2
 72
     6
 73
     3
 74
     0
 42
0.000000001
 43
0.0000000001
 40
-0.5
 40
-0.5
 40
-0.5
 40
0.0
 40
0.0
 40
0.0
 10
4.0
 20
0.0
 30
-110.9316039401
 10
3.75
 20
0.0
 30
-110.9316039401
 10
3.5
 20
0.0
 30
-110.9316039401
  0
SPLINE
  5
30B
330
2F8
100
AcDbEntity
  8
Layer 01
100
AcDbSpline
210
0.0
220
0.0
230
1.0
 70
    24
 71
     2
 72
     6
 73
     3
 74
     0
 42
0.000000001
 43
0.0000000001
 40
-0.8000000000627374
 40
-0.8000000000627374
 40
-0.8000000000627374
 40
0.0
 40
0.0
 40
0.0
 10
3.5
 20
-7.947334331104999
 30
-107.7288489707
 10
3.5
 20
-8.147334331105
 30
-108.07525913225
 10
3.5
 20
-8.347334331105
 30
-108.4216692938
  0
SPLINE
  5
30C
330
2F8
100
AcDbEntity
  8
Layer 01
100
AcDbSpline
210
0.0
220
0.0
230
1.0
 70
    24
 71
     2
 72
     6
 73
     3
 74
     0
 42
0.000000001
 43
0.0000000001
 40
-7.791150584763811
 40
-7.791150584763811
 40
-7.791150584763811
 40
0.0
 40
0.0
 40
0.0
 10
3.5
 20
-1.200000000000001
 30
-111.6244242631
 10
3.5
 20
-4.5736671655525
 30
-109.6766366169
 10
3.5
 20
-7.947334331104999
 30
-107.7288489707
  0
SPLINE
  5
30D
330
2F8
100
AcDbEntity
  8
Layer 01
100
AcDbSpline
210
0.0
220
0.0
230
1.0
 70
    24
 71
     2
 72
     6
 73
     3
 74
     0
 42
0.000000001
 43
0.0000000001
 40
0.0
 40
0.0
 40
0.0
 40
0.7999999999761459
 40
0.7999999999761459
 40
0.7999999999761459
 10
3.5
 20
-1.200000000000001
 30
-111.6244242631
 10
3.5
 20
-1.4
 30
-111.9708344246
 10
3.5
 20
-1.599999999999999
 30
-112.3172445861
  0
SPLINE
  5
30E
330
2F8
100
AcDbEntity
  8
Layer 01
100
AcDbSpline
210
0.0
220
0.0
230
1.0
 70
    24
 71
     2
 72
     6
 73
     3
 74
     0
 42
0.000000001
 43
0.0000000001
 40
-7.791150584713817
 40
-7.791150584713817
 40
-7.791150584713817
 40
0.0
 40
0.0
 40
0.0
 10
3.5
 20
-8.347334331105
 30
-108.4216692938
 10
3.5
 20
-4.9736671655525
 30
-110.36945693995
 10
3.5
 20
-1.599999999999999
 30
-112.3172445861
  0
ARC
  5
30F
330
2F8
100
AcDbEntity
  8
Layer 01
100
AcDbCircle
 10
-1.500000000019219
 20
-46.98183106228544
 30
-98.06958709469428
 40
1.999999999996636
210
9.497402864155873E-13
220
0.5000000000000168
230
0.866025403784429
100
AcDbArc
 50
89.9999999999979
 51
180.0000000000944
  0
SPLINE
  5
310
330
2F8
100
AcDbEntity
  8
Layer 01
100
AcDbSpline
210
0.0
220
0.0
230
1.0
 70
    24
 71
     2
 72
     6
 73
     3
 74
     0
 42
0.000000001
 43
0.0000000001
 40
-0.8000000000607377
 40
-0.8000000000607377
 40
-0.8000000000607377
 40
0.0
 40
0.0
 40
0.0
 10
1.5
 20
-9.679385138674
 30
-106.7288489707
 10
1.5
 20
-9.879385138672
 30
-107.07525913225
 10
1.5
 20
-10.07938513867
 30
-107.4216692938
  0
ARC
  5
311
330
2F8
100
AcDbEntity
  8
Layer 01
100
AcDbCircle
 10
1.499999999999112
 20
-46.98183106224591
 30
97.26958709463538
 40
2.000000000000113
210
4.913333684943815E-14
220
-0.5000000000000104
230
-0.8660254037844326
100
AcDbArc
 50
0.0000000000050889
 51
90.0000000000018
  0
SPLINE
  5
312
330
2F8
100
AcDbEntity
  8
Layer 01
100
AcDbSpline
210
0.0
220
0.0
230
1.0
 70
    24
 71
     2
 72
     6
 73
     3
 74
     0
 42
0.000000001
 43
0.0000000001
 40
-7.0
 40
-7.0
 40
-7.0
 40
0.0
 40
0.0
 40
0.0
 10
-3.5
 20
-1.599999999999999
 30
-112.3172445861
 10
0.0
 20
-1.599999999999999
 30
-112.3172445861
 10
3.5
 20
-1.599999999999999
 30
-112.3172445861
  0
SPLINE
  5
313
330
2F8
100
AcDbEntity
  8
Layer 01
100
AcDbSpline
210
0.0
220
0.0
230
1.0
 70
    24
 71
     2
 72
     6
 73
     3
 74
     0
 42
0.000000001
 43
0.0000000001
 40
-7.791150584713817
 40
-7.791150584713817
 40
-7.791150584713817
 40
0.0
 40
0.0
 40
0.0
 10
-3.5
 20
-8.347334331105
 30
-108.4216692938
 10
-3.5
 20
-4.9736671655525
 30
-110.36945693995
 10
-3.5
 20
-1.599999999999999
 30
-112.3172445861
  0
SPLINE
  5
314
330
2F8
100
AcDbEntity
  8
Layer 01
100
AcDbSpline
210
0.0
220
0.0
230
1.0
 70
    24
 71
     2
 72
     6
 73
     3
 74
     0
 42
0.000000001
 43
0.0000000001
 40
-3.0
 40
-3.0
 40
-3.0
 40
0.0
 40
0.0
 40
0.0
 10
1.5
 20
-10.07938513867
 30
-107.4216692938
 10
0.0
 20
-10.07938513867
 30
-107.4216692938
 10
-1.5
 20
-10.07938513867
 30
-107.4216692938
  0
ARC
  5
315
330
2F8
100
AcDbEntity
  8
Layer 01
100
AcDbCircle
 10
0.0
 20
-48.98183106228309
 30
-98.0695870946975
 40
1.6
210
0.0
220
0.5000000000000168
230
0.8660254037844289
100
AcDbArc
 50
180.0
 51
0.0
  0
SPLINE
  5
316
330
2F8
100
AcDbEntity
  8
Layer 01
100
AcDbSpline
210
0.0
220
0.0
230
1.0
 70
    24
 71
     2
 72
     6
 73
     3
 74
     0
 42
0.000000001
 43
0.0000000001
 40
0.0
 40
0.0
 40
0.0
 40
0.8000000000627379
 40
0.8000000000627379
 40
0.8000000000627379
 10
-1.6
 20
-6.615283523536
 30
-109.4216692938
 10
-1.6
 20
-6.415283523535999
 30
-109.07525913225
 10
-1.6
 20
-6.215283523535999
 30
-108.7288489707
  0
ARC
  5
317
330
2F8
100
AcDbEntity
  8
Layer 01
100
AcDbCircle
 10
0.0000000000000495
 20
-48.98183106224685
 30
97.26958709463476
 40
1.6
210
-3.984703250845233E-15
220
-0.5000000000000169
230
-0.8660254037844289
100
AcDbArc
 50
179.9999999999995
 51
359.9999999999995
  0
SPLINE
  5
318
330
2F8
100
AcDbEntity
  8
Layer 01
100
AcDbSpline
210
0.0
220
0.0
230
1.0
 70
    24
 71
     2
 72
     6
 73
     3
 74
     0
 42
0.000000001
 43
0.0000000001
 40
0.0
 40
0.0
 40
0.0
 40
0.8000000000627379
 40
0.8000000000627379
 40
0.8000000000627379
 10
1.6
 20
-6.215283523535999
 30
-108.7288489707
 10
1.6
 20
-6.415283523535999
 30
-109.07525913225
 10
1.6
 20
-6.615283523536
 30
-109.4216692938
  0
ARC
  5
319
330
2F8
100
AcDbEntity
  8
Layer 01
100
AcDbCircle
 10
0.0
 20
-48.98183106228309
 30
-98.0695870946975
 40
1.6
210
0.0
220
0.5000000000000168
230
0.8660254037844289
100
AcDbArc
 50
0.0
 51
180.0
  0
ARC
  5
31A
330
2F8
100
AcDbEntity
  8
Layer 01
100
AcDbCircle
 10
-0.0000000000000495
 20
-48.98183106224686
 30
97.26958709463476
 40
1.6
210
3.984703250845233E-15
220
-0.5000000000000169
230
-0.8660254037844289
100
AcDbArc
 50
0.0000000000005089
 51
180.0000000000002
  0
SPLINE
  5
31B
330
2F8
100
AcDbEntity
  8
Layer 01
100
AcDbSpline
210
0.0
220
0.0
230
1.0
 70
    24
 71
     2
 72
     6
 73
     3
 74
     0
 42
0.000000001
 43
0.0000000001
 40
0.0
 40
0.0
 40
0.0
 40
3.0
 40
3.0
 40
3.0
 10
1.5
 20
-9.679385138674
 30
-106.7288489707
 10
0.0
 20
-9.679385138674
 30
-106.7288489707
 10
-1.5
 20
-9.679385138674
 30
-106.7288489707
  0
SPLINE
  5
31C
330
2F8
100
AcDbEntity
  8
Layer 01
100
AcDbSpline
210
0.0
220
0.0
230
1.0
 70
    24
 71
     2
 72
     6
 73
     3
 74
     0
 42
0.000000001
 43
0.0000000001
 40
0.0
 40
0.0
 40
0.0
 40
7.791150584763811
 40
7.791150584763811
 40
7.791150584763811
 10
-3.5
 20
-7.947334331104999
 30
-107.7288489707
 10
-3.5
 20
-4.5736671655525
 30
-109.6766366169
 10
-3.5
 20
-1.200000000000001
 30
-111.6244242631
  0
SPLINE
  5
31D
330
2F8
100
AcDbEntity
  8
Layer 01
100
AcDbSpline
210
0.0
220
0.0
230
1.0
 70
    24
 71
     2
 72
     6
 73
     3
 74
     0
 42
0.000000001
 43
0.0000000001
 40
0.0
 40
0.0
 40
0.0
 40
7.0
 40
7.0
 40
7.0
 10
-3.5
 20
-1.200000000000001
 30
-111.6244242631
 10
0.0
 20
-1.200000000000001
 30
-111.6244242631
 10
3.5
 20
-1.200000000000001
 30
-111.6244242631
  0
SPLINE
  5
31E
330
2F8
100
AcDbEntity
  8
Layer 01
100
AcDbSpline
210
0.0
220
0.0
230
1.0
 70
    24
 71
     2
 72
     6
 73
     3
 74
     0
 42
0.000000001
 43
0.0000000001
 40
-0.8000000000607377
 40
-0.8000000000607377
 40
-0.8000000000607377
 40
0.0
 40
0.0
 40
0.0
 10
-1.5
 20
-9.679385138674
 30
-106.7288489707
 10
-1.5
 20
-9.879385138672
 30
-107.07525913225
 10
-1.5
 20
-10.07938513867
 30
-107.4216692938
  0
ARC
  5
31F
330
2F8
100
AcDbEntity
  8
Layer 01
100
AcDbCircle
 10
-1.500000000019238
 20
-46.98183106228529
 30
98.06958709469436
 40
1.999999999996645
210
9.514056209525279E-13
220
-0.5000000000000153
230
-0.8660254037844298
100
AcDbArc
 50
89.9999999999983
 51
180.0000000000942
  0
SPLINE
  5
320
330
2F8
100
AcDbEntity
  8
Layer 01
100
AcDbSpline
210
0.0
220
0.0
230
1.0
 70
    24
 71
     2
 72
     6
 73
     3
 74
     0
 42
0.000000001
 43
0.0000000001
 40
-0.8000000000627374
 40
-0.8000000000627374
 40
-0.8000000000627374
 40
0.0
 40
0.0
 40
0.0
 10
-3.5
 20
-7.947334331104999
 30
-107.7288489707
 10
-3.5
 20
-8.147334331105
 30
-108.07525913225
 10
-3.5
 20
-8.347334331105
 30
-108.4216692938
  0
ARC
  5
321
330
2F8
100
AcDbEntity
  8
Layer 01
100
AcDbCircle
 10
-1.499999999999188
 20
-46.98183106224663
 30
97.26958709463504
 40
2.000000000000113
210
-4.396483177515621E-14
220
-0.5000000000000168
230
-0.866025403784429
100
AcDbArc
 50
89.99999999999888
 51
179.9999999999955
  0
SPLINE
  5
322
330
2F8
100
AcDbEntity
  8
Layer 01
100
AcDbSpline
210
0.0
220
0.0
230
1.0
 70
    24
 71
     2
 72
     6
 73
     3
 74
     0
 42
0.000000001
 43
0.0000000001
 40
-0.7999999999761459
 40
-0.7999999999761459
 40
-0.7999999999761459
 40
0.0
 40
0.0
 40
0.0
 10
-3.5
 20
-1.200000000000001
 30
-111.6244242631
 10
-3.5
 20
-1.4
 30
-111.9708344246
 10
-3.5
 20
-1.599999999999999
 30
-112.3172445861
  0
SPLINE
  5
323
330
2F8
100
AcDbEntity
  8
Layer 01
100
AcDbSpline
210
0.0
220
0.0
230
1.0
 70
    24
 71
     2
 72
     6
 73
     3
 74
     0
 42
0.000000001
 43
0.0000000001
 40
-0.8
 40
-0.8
 40
-0.8
 40
0.0
 40
0.0
 40
0.0
 10
-3.5
 20
0.000000000000001
 30
-110.9316039401
 10
-3.5
 20
0.4000000000000005
 30
-110.9316039401
 10
-3.5
 20
0.8
 30
-110.9316039401
  0
ARC
  5
324
330
2F8
100
AcDbEntity
  8
Layer 01
100
AcDbCircle
 10
-0.7999999999681807
 20
-110.9316039401
 30
3.5
 40
1.599999999968181
210
1.0
220
0.0
230
0.0
100
AcDbArc
 50
239.9999999980268
 51
0.0
  0
ARC
  5
325
330
2F8
100
AcDbEntity
  8
Layer 01
100
AcDbCircle
 10
0.7999999999681813
 20
-110.9316039401
 30
3.5
 40
1.599999999968181
210
-1.0
220
0.0
230
0.0
100
AcDbArc
 50
180.0
 51
300.0000000019733
  0
SPLINE
  5
326
330
2F8
100
AcDbEntity
  8
Layer 01
100
AcDbSpline
210
0.0
220
0.0
230
1.0
 70
    24
 71
     2
 72
     6
 73
     3
 74
     0
 42
0.000000001
 43
0.0000000001
 40
-0.8
 40
-0.8
 40
-0.8
 40
0.0
 40
0.0
 40
0.0
 10
-4.0
 20
0.0
 30
-110.9316039401
 10
-4.0
 20
0.4
 30
-110.9316039401
 10
-4.0
 20
0.8
 30
-110.9316039401
  0
SPLINE
  5
327
330
2F8
100
AcDbEntity
  8
Layer 01
100
AcDbSpline
210
0.0
220
0.0
230
1.0
 70
    24
 71
     2
 72
     6
 73
     3
 74
     0
 42
0.000000001
 43
0.0000000001
 40
-0.5
 40
-0.5
 40
-0.5
 40
0.0
 40
0.0
 40
0.0
 10
-3.5
 20
0.000000000000001
 30
-110.9316039401
 10
-3.75
 20
0.0000000000000005
 30
-110.9316039401
 10
-4.0
 20
0.0
 30
-110.9316039401
  0
SPLINE
  5
328
330
2F8
100
AcDbEntity
  8
Layer 01
100
AcDbSpline
210
0.0
220
0.0
230
1.0
 70
    24
 71
     2
 72
     6
 73
     3
 74
     0
 42
0.000000001
 43
0.0000000001
 40
-3.9117676579
 40
-3.9117676579
 40
-3.9117676579
 40
0.0
 40
0.0
 40
0.0
 10
-4.0
 20
0.0
 30
-110.9316039401
 10
-4.0
 20
0.0
 30
-112.88748776905
 10
-4.0
 20
0.0
 30
-114.843371598
  0
ARC
  5
329
330
2F8
100
AcDbEntity
  8
Layer 01
100
AcDbCircle
 10
-0.0000000000000147
 20
-0.0000000027903297
 30
0.0
 40
116.9999999972058
210
0.0
220
1.0
230
0.0
100
AcDbArc
 50
272.9907029067361
 51
267.0092970932639
  0
ARC
  5
32A
330
2F8
100
AcDbEntity
  8
Layer 01
100
AcDbCircle
 10
-0.7999999999840975
 20
-110.9316039401
 30
-3.5
 40
0.7999999999841014
210
1.0
220
0.0
230
0.0
100
AcDbArc
 50
239.9999999980271
 51
359.999999999999
  0
SPLINE
  5
32B
330
2F8
100
AcDbEntity
  8
Layer 01
100
AcDbSpline
210
0.0
220
0.0
230
1.0
 70
    24
 71
     2
 72
     6
 73
     3
 74
     0
 42
0.000000001
 43
0.0000000001
 40
0.0
 40
0.0
 40
0.0
 40
7.0
 40
7.0
 40
7.0
 10
-3.5
 20
0.000000000000001
 30
-110.9316039401
 10
0.0
 20
0.0000000000000005
 30
-110.9316039401
 10
3.5
 20
0.0
 30
-110.9316039401
  0
ARC
  5
32C
330
2F8
100
AcDbEntity
  8
Layer 01
100
AcDbCircle
 10
0.7999999999840927
 20
-110.9316039401
 30
-3.5
 40
0.7999999999840927
210
-1.0
220
0.0
230
0.0
100
AcDbArc
 50
180.0
 51
300.0000000019737
  0
ARC
  5
32D
330
2F8
100
AcDbEntity
  8
Layer 01
100
AcDbCircle
 10
19.53541998753
 20
-110.7908722139
 30
-0.8
 40
1.75
210
0.0
220
-1.0
230
0.0
100
AcDbArc
 50
180.0
 51
0.0
  0
SPLINE
  5
32E
330
2F8
100
AcDbEntity
  8
Layer 01
100
AcDbSpline
210
0.0
220
0.0
230
1.0
 70
    24
 71
     2
 72
     6
 73
     3
 74
     0
 42
0.000000001
 43
0.0000000001
 40
0.0
 40
0.0
 40
0.0
 40
0.8
 40
0.8
 40
0.8
 10
21.28541998753
 20
0.8
 30
-110.7908722139
 10
21.28541998753
 20
0.4
 30
-110.7908722139
 10
21.28541998753
 20
0.0
 30
-110.7908722139
  0
ARC
  5
32F
330
2F8
100
AcDbEntity
  8
Layer 01
100
AcDbCircle
 10
19.53541998753
 20
-110.7908722139
 30
0.0
 40
1.75
210
0.0
220
-1.0
230
0.0
100
AcDbArc
 50
180.0
 51
0.0
  0
SPLINE
  5
330
330
2F8
100
AcDbEntity
  8
Layer 01
100
AcDbSpline
210
0.0
220
0.0
230
1.0
 70
    24
 71
     2
 72
     6
 73
     3
 74
     0
 42
0.000000001
 43
0.0000000001
 40
0.0
 40
0.0
 40
0.0
 40
0.8
 40
0.8
 40
0.8
 10
17.78541998753
 20
0.0
 30
-110.7908722139
 10
17.78541998753
 20
0.4
 30
-110.7908722139
 10
17.78541998753
 20
0.8
 30
-110.7908722139
  0
ARC
  5
331
330
2F8
100
AcDbEntity
  8
Layer 01
100
AcDbCircle
 10
19.53541998753
 20
-110.7908722139
 30
-0.8
 40
1.75
210
0.0
220
-1.0
230
0.0
100
AcDbArc
 50
0.0
 51
180.0
  0
ARC
  5
332
330
2F8
100
AcDbEntity
  8
Layer 01
100
AcDbCircle
 10
19.53541998753
 20
-110.7908722139
 30
0.0
 40
1.75
210
0.0
220
-1.0
230
0.0
100
AcDbArc
 50
0.0
 51
180.0
  0
LINE
  5
333
330
2F8
100
AcDbEntity
  8
Layer 01
100
AcDbLine
 10
-116.9999859841576
 20
0.8
 30
0.0572630093862188
 11
116.9999859841575
 21
0.8
 31
0.0572630093862188
  0
LINE
  5
334
330
2F8
100
AcDbEntity
  8
Layer 01
100
AcDbLine
 10
0.0000000000000142
 20
0.8
 30
116.999999994411
 11
0.0000000000000142
 21
0.8
 31
-110.9316039401
  0
ARC
  5
335
330
2F8
100
AcDbEntity
  8
Layer 01
100
AcDbCircle
 10
6.0
 20
-114.843371598
 30
0.4000000000000004
 40
2.0
210
0.0
220
1.0
230
0.0
100
AcDbArc
 50
180.0
 51
272.9907029066533
  0
LINE
  5
336
330
2F8
100
AcDbEntity
  8
Layer 01
100
AcDbLine
 10
-6.0
 20
0.0
 30
-116.843371598
 11
-6.0
 21
0.8
 31
-116.843371598
  0
ARC
  5
337
330
2F8
100
AcDbEntity
  8
Layer 01
100
AcDbCircle
 10
0.0
 20
0.0
 30
0.4000000000000001
 40
117.0
210
0.0
220
1.0
230
0.0
100
AcDbArc
 50
272.9907029066648
 51
267.0092970933352
  0
LINE
  5
338
330
2F8
100
AcDbEntity
  8
Layer 01
100
AcDbLine
 10
-116.9316039400812
 20
-0.0000000000000001
 30
3.999999999999478
 11
-116.9316039400812
 21
0.8000000000000002
 31
3.999999999999478
  0
LINE
  5
339
330
2F8
100
AcDbEntity
  8
Layer 01
100
AcDbLine
 10
3.999999999999478
 20
-0.0000000000000001
 30
116.9316039400812
 11
3.999999999999478
 21
0.8000000000000002
 31
116.9316039400812
  0
LINE
  5
33A
330
2F8
100
AcDbEntity
  8
Layer 01
100
AcDbLine
 10
116.9316039400812
 20
-0.0000000000000001
 30
-3.999999999999478
 11
116.9316039400812
 21
0.8000000000000002
 31
-3.999999999999478
  0
ARC
  5
33B
330
2F8
100
AcDbEntity
  8
Layer 01
100
AcDbCircle
 10
-6.0
 20
-114.843371598
 30
0.4000000000000004
 40
2.000000000000003
210
0.0
220
1.0
230
0.0
100
AcDbArc
 50
267.0092970933347
 51
0.0
  0
LINE
  5
33C
330
2F8
100
AcDbEntity
  8
Layer 01
100
AcDbLine
 10
4.002723972208415
 20
0.0
 30
-114.947719424087
 11
4.002723972208415
 21
0.8
 31
-114.947719424087
  0
LINE
  5
33D
330
2F8
100
AcDbEntity
  8
Layer 01
100
AcDbLine
 10
4.0
 20
0.4000000000000001
 30
-114.843371598
 11
4.0
 21
0.4000000000000001
 31
-110.9316039401
  0
LINE
  5
33E
330
2F8
100
AcDbEntity
  8
Layer 01
100
AcDbLine
 10
4.0
 20
-0.0000000000000001
 30
-112.88748776905
 11
4.0
 21
0.8000000000000002
 31
-112.88748776905
  0
LINE
  5
33F
330
2F8
100
AcDbEntity
  8
Layer 01
100
AcDbLine
 10
4.0
 20
0.4000000000000001
 30
-110.9316039401
 11
3.5
 21
0.4000000000000001
 31
-110.9316039401
  0
LINE
  5
340
330
2F8
100
AcDbEntity
  8
Layer 01
100
AcDbLine
 10
3.75
 20
-0.0000000000000001
 30
-110.9316039401
 11
3.75
 21
0.8000000000000002
 31
-110.9316039401
  0
LINE
  5
341
330
2F8
100
AcDbEntity
  8
Layer 01
100
AcDbLine
 10
3.5
 20
-0.3999999999999998
 30
-111.6244242631184
 11
3.5
 21
-0.3999999999999998
 31
-112.4807972785583
  0
LINE
  5
342
330
2F8
100
AcDbEntity
  8
Layer 01
100
AcDbLine
 10
3.5
 20
-1.333333333346592
 30
-111.8553643707896
 11
3.5
 21
0.5063945294869514
 31
-111.8553643707896
  0
LINE
  5
343
330
2F8
100
AcDbEntity
  8
Layer 01
100
AcDbLine
 10
3.5
 20
-1.399999999994816
 30
-111.970834424591
 11
3.5
 21
-8.147334331088539
 31
-108.0752591322215
  0
LINE
  5
344
330
2F8
100
AcDbEntity
  8
Layer 01
100
AcDbLine
 10
3.5
 20
-4.573667165558456
 30
-109.6766366168966
 11
3.5
 21
-4.973667165568191
 31
-110.3694569399409
  0
ARC
  5
345
330
2F8
100
AcDbEntity
  8
Layer 01
100
AcDbCircle
 10
1.5
 20
-46.98183106226445
 30
97.66958709466678
 40
2.0
210
0.0
220
-0.5000000000000066
230
-0.8660254037844348
100
AcDbArc
 50
359.9999999999998
 51
89.99999999999972
  0
LINE
  5
346
330
2F8
100
AcDbEntity
  8
Layer 01
100
AcDbLine
 10
-3.5
 20
-5.839692569335554
 30
-109.8694569399476
 11
-1.325875143337417
 21
-5.839692569335554
 31
-109.8694569399476
  0
LINE
  5
347
330
2F8
100
AcDbEntity
  8
Layer 01
100
AcDbLine
 10
1.325875143337417
 20
-5.839692569335554
 30
-109.8694569399476
 11
3.5
 21
-5.839692569335554
 31
-109.8694569399476
  0
LINE
  5
348
330
2F8
100
AcDbEntity
  8
Layer 01
100
AcDbLine
 10
0.0000000000000027
 20
-1.600000000015082
 30
-112.3172445861261
 11
0.0000000000000027
 21
-5.22964287746313
 31
-110.2216692937692
  0
LINE
  5
349
330
2F8
100
AcDbEntity
  8
Layer 01
100
AcDbLine
 10
0.0000000000000027
 20
-8.000924169573304
 30
-108.6216692937691
 11
0.0000000000000027
 21
-10.07938513865311
 31
-107.4216692937707
  0
ARC
  5
34A
330
2F8
100
AcDbEntity
  8
Layer 01
100
AcDbCircle
 10
0.0000000000000071
 20
-48.98183106224023
 30
-97.66958709466603
 40
1.600000000000009
210
0.0
220
0.5000000000000189
230
0.8660254037844277
100
AcDbArc
 50
180.0
 51
0.0
  0
LINE
  5
34B
330
2F8
100
AcDbEntity
  8
Layer 01
100
AcDbLine
 10
-0.0000000000000099
 20
-5.229642877518254
 30
-110.2216692937785
 11
-0.0000000000000114
 21
-4.829642877486863
 31
-109.5288489706966
  0
ARC
  5
34C
330
2F8
100
AcDbEntity
  8
Layer 01
100
AcDbCircle
 10
0.0000000000000071
 20
-48.9818310622395
 30
-97.66958709466637
 40
1.600000000000009
210
0.0
220
0.5000000000000128
230
0.8660254037844314
100
AcDbArc
 50
359.9999999991046
 51
180.0000000008954
  0
LINE
  5
34D
330
2F8
100
AcDbEntity
  8
Layer 01
100
AcDbLine
 10
-1.600000000000014
 20
-6.615283523573338
 30
-109.4216692937785
 11
-1.600000000000017
 21
-6.215283523541956
 31
-108.7288489706966
  0
LINE
  5
34E
330
2F8
100
AcDbEntity
  8
Layer 01
100
AcDbLine
 10
-0.0000000000000099
 20
-8.000924169628439
 30
-108.6216692937784
 11
-0.0000000000000114
 21
-7.600924169597061
 31
-107.9288489706965
  0
LINE
  5
34F
330
2F8
100
AcDbEntity
  8
Layer 01
100
AcDbLine
 10
1.6
 20
-6.615283523573346
 30
-109.4216692937784
 11
1.600000000000003
 21
-6.215283523541967
 31
-108.7288489706965
  0
LINE
  5
350
330
2F8
100
AcDbEntity
  8
Layer 01
100
AcDbLine
 10
-3.5
 20
-5.439692569357234
 30
-109.1766366169351
 11
-1.32587514332058
 21
-5.439692569357234
 31
-109.1766366169351
  0
LINE
  5
351
330
2F8
100
AcDbEntity
  8
Layer 01
100
AcDbLine
 10
1.32587514332058
 20
-5.439692569357234
 30
-109.1766366169351
 11
3.5
 21
-5.439692569357234
 31
-109.1766366169351
  0
LINE
  5
352
330
2F8
100
AcDbEntity
  8
Layer 01
100
AcDbLine
 10
0.0
 20
-1.200000000015087
 30
-111.6244242631261
 11
0.0
 21
-4.829642877506422
 31
-109.5288489707442
  0
LINE
  5
353
330
2F8
100
AcDbEntity
  8
Layer 01
100
AcDbLine
 10
0.0
 20
-7.600924169616599
 30
-107.9288489707441
 11
0.0
 21
-9.679385138699407
 31
-106.728848970744
  0
LINE
  5
354
330
2F8
100
AcDbEntity
  8
Layer 01
100
AcDbLine
 10
1.5
 20
-9.879385138695147
 30
-107.0752591322366
 11
-1.5
 21
-9.879385138695147
 31
-107.0752591322366
  0
LINE
  5
355
330
2F8
100
AcDbEntity
  8
Layer 01
100
AcDbLine
 10
0.0
 20
-9.679385138679956
 30
-106.7288489706966
 11
0.0
 21
-10.07938513871034
 31
-107.4216692937767
  0
ARC
  5
356
330
2F8
100
AcDbEntity
  8
Layer 01
100
AcDbCircle
 10
-1.5
 20
-46.98183106226445
 30
97.66958709466681
 40
1.999999999999982
210
0.0
220
-0.5000000000000066
230
-0.8660254037844348
100
AcDbArc
 50
90.0
 51
180.0
  0
LINE
  5
357
330
2F8
100
AcDbEntity
  8
Layer 01
100
AcDbLine
 10
-3.5
 20
-8.147334331088539
 30
-108.0752591322215
 11
-3.5
 21
-1.399999999994815
 31
-111.970834424591
  0
LINE
  5
358
330
2F8
100
AcDbEntity
  8
Layer 01
100
AcDbLine
 10
-3.5
 20
-4.573667165558456
 30
-109.6766366168966
 11
-3.5
 21
-4.973667165568191
 31
-110.3694569399409
  0
LINE
  5
359
330
2F8
100
AcDbEntity
  8
Layer 01
100
AcDbLine
 10
-3.5
 20
-0.3999999999999998
 30
-112.4807972785583
 11
-3.5
 21
-0.3999999999999998
 31
-111.6244242631184
  0
LINE
  5
35A
330
2F8
100
AcDbEntity
  8
Layer 01
100
AcDbLine
 10
-3.5
 20
-1.333333333346592
 30
-111.8553643707896
 11
-3.5
 21
0.5063945294869518
 31
-111.8553643707896
  0
ARC
  5
35B
330
2F8
100
AcDbEntity
  8
Layer 01
100
AcDbCircle
 10
0.8
 20
-110.9316039401
 30
0.0
 40
1.6
210
-1.0
220
0.0
230
0.0
100
AcDbArc
 50
180.0
 51
300.0000000009866
  0
LINE
  5
35C
330
2F8
100
AcDbEntity
  8
Layer 01
100
AcDbLine
 10
3.5
 20
-0.7999999999999972
 30
-112.5316039401
 11
-3.5
 21
-0.7999999999999972
 31
-112.5316039401
  0
LINE
  5
35D
330
2F8
100
AcDbEntity
  8
Layer 01
100
AcDbLine
 10
-3.5
 20
0.4000000000000001
 30
-110.9316039401
 11
-4.0
 21
0.4000000000000001
 31
-110.9316039401
  0
LINE
  5
35E
330
2F8
100
AcDbEntity
  8
Layer 01
100
AcDbLine
 10
-3.75
 20
-0.0000000000000001
 30
-110.9316039401
 11
-3.75
 21
0.8000000000000002
 31
-110.9316039401
  0
LINE
  5
35F
330
2F8
100
AcDbEntity
  8
Layer 01
100
AcDbLine
 10
-4.0
 20
0.4000000000000001
 30
-110.9316039401
 11
-4.0
 21
0.4000000000000001
 31
-114.843371598
  0
LINE
  5
360
330
2F8
100
AcDbEntity
  8
Layer 01
100
AcDbLine
 10
-4.0
 20
-0.0000000000000001
 30
-112.88748776905
 11
-4.0
 21
0.8000000000000002
 31
-112.88748776905
  0
LINE
  5
361
330
2F8
100
AcDbEntity
  8
Layer 01
100
AcDbLine
 10
-116.9999859841576
 20
0.0
 30
0.0572630093862188
 11
116.9999859841576
 21
0.0
 31
0.0572630093862188
  0
LINE
  5
362
330
2F8
100
AcDbEntity
  8
Layer 01
100
AcDbLine
 10
0.0
 20
0.0
 30
116.999999994411
 11
0.0
 21
0.0
 31
-110.9316039401
  0
ARC
  5
363
330
2F8
100
AcDbEntity
  8
Layer 01
100
AcDbCircle
 10
0.8
 20
-110.9316039401
 30
0.0
 40
0.8
210
-1.0
220
0.0
230
0.0
100
AcDbArc
 50
180.0
 51
300.0000000009871
  0
LINE
  5
364
330
2F8
100
AcDbEntity
  8
Layer 01
100
AcDbLine
 10
3.5
 20
-0.7999999999999972
 30
-111.7316039401
 11
-3.500000000000001
 21
-0.7999999999999972
 31
-111.7316039401
  0
ARC
  5
365
330
2F8
100
AcDbEntity
  8
Layer 01
100
AcDbCircle
 10
19.53541998752999
 20
-110.7908722139
 30
-0.4000000000000001
 40
1.75
210
0.0
220
-1.0
230
0.0
100
AcDbArc
 50
180.0
 51
0.0
  0
LINE
  5
366
330
2F8
100
AcDbEntity
  8
Layer 01
100
AcDbLine
 10
19.53541998752999
 20
0.7999999999999999
 30
-112.5408722139
 11
19.53541998752999
 21
-0.0000000000000001
 31
-112.5408722139
  0
ARC
  5
367
330
2F8
100
AcDbEntity
  8
Layer 01
100
AcDbCircle
 10
19.53541998752999
 20
-110.7908722139
 30
-0.4000000000000001
 40
1.75
210
0.0
220
-1.0
230
0.0
100
AcDbArc
 50
0.0
 51
180.0
  0
LINE
  5
368
330
2F8
100
AcDbEntity
  8
Layer 01
100
AcDbLine
 10
19.53541998752999
 20
0.7999999999999999
 30
-109.0408722139
 11
19.53541998752999
 21
-0.0000000000000001
 31
-109.0408722139
  0
ENDBLK
  5
36A
330
2F8
100
AcDbEntity
  8
0
100
AcDbBlockEnd
  0
ENDSEC
  0
SECTION
  2
ENTITIES
  0
INSERT
  5
36E
330
1F
100
AcDbEntity
  8
Layer 01
100
AcDbBlockReference
  2
D81C_720_ASM
 10
0.0
 20
0.0
 30
0.0
  0
ENDSEC
  0
SECTION
  2
OBJECTS
  0
DICTIONARY
  5
C
330
0
100
AcDbDictionary
281
     1
  3
ACAD_DETAILVIEWSTYLE
350
3AA
  3
ACAD_GROUP
350
D
  3
ACAD_LAYOUT
350
1A
  3
ACAD_MATERIAL
350
43
  3
ACAD_MLEADERSTYLE
350
6B
  3
ACAD_MLINESTYLE
350
17
  3
ACAD_PLOTSETTINGS
350
19
  3
ACAD_PLOTSTYLENAME
350
E
  3
ACAD_SCALELIST
350
47
  3
ACAD_SECTIONVIEWSTYLE
350
3AB
  3
ACAD_TABLESTYLE
350
69
  3
ACAD_VISUALSTYLE
350
2A
  3
ACDB_RECOMPOSE_DATA
350
3A7
  3
AcDbVariableDictionary
350
36F
  0
SUN
  5
6D
330
29
100
AcDbSun
 90
        1
290
     0
 63
     7
421
 16777215
 40
1.0
291
     1
 91
  2455826
 92
 54000000
292
     0
 70
     2
 71
   256
280
     1
  0
DICTIONARY
  5
3AA
102
{ACAD_REACTORS
330
C
102
}
330
C
100
AcDbDictionary
281
     1
  0
DICTIONARY
  5
D
102
{ACAD_REACTORS
330
C
102
}
330
C
100
AcDbDictionary
281
     1
  0
DICTIONARY
  5
1A
102
{ACAD_REACTORS
330
C
102
}
330
C
100
AcDbDictionary
281
     1
  3
Layout1
350
1E
  3
Layout2
350
26
  3
Model
350
22
  0
DICTIONARY
  5
43
102
{ACAD_REACTORS
330
C
102
}
330
C
100
AcDbDictionary
281
     1
  3
ByBlock
350
45
  3
ByLayer
350
44
  3
Global
350
46
  0
DICTIONARY
  5
6B
102
{ACAD_REACTORS
330
C
102
}
330
C
100
AcDbDictionary
281
     1
  3
Standard
350
6C
  0
DICTIONARY
  5
17
102
{ACAD_REACTORS
330
C
102
}
330
C
100
AcDbDictionary
281
     1
  3
Standard
350
18
  0
DICTIONARY
  5
19
102
{ACAD_REACTORS
330
C
102
}
330
C
100
AcDbDictionary
281
     1
  0
ACDBDICTIONARYWDFLT
  5
E
102
{ACAD_REACTORS
330
C
102
}
330
C
100
AcDbDictionary
281
     1
  3
Normal
350
F
100
AcDbDictionaryWithDefault
340
F
  0
DICTIONARY
  5
47
102
{ACAD_REACTORS
330
C
102
}
330
C
100
AcDbDictionary
281
     1
  3
A0
350
48
  3
A1
350
49
  3
A2
350
4A
  3
A3
350
4B
  3
A4
350
4C
  3
A5
350
4D
  3
A6
350
4E
  3
A7
350
4F
  3
A8
350
50
  3
A9
350
51
  3
B0
350
52
  3
B1
350
53
  3
B2
350
54
  3
B3
350
55
  3
B4
350
56
  3
B5
350
57
  3
B6
350
58
  3
B7
350
59
  3
B8
350
5A
  3
B9
350
5B
  3
C0
350
5C
  3
C1
350
5D
  3
C2
350
5E
  3
C3
350
5F
  3
C4
350
60
  3
C5
350
61
  3
C6
350
62
  3
C7
350
63
  3
C8
350
64
  3
C9
350
65
  3
D0
350
66
  3
D1
350
67
  3
D2
350
68
  0
DICTIONARY
  5
3AB
102
{ACAD_REACTORS
330
C
102
}
330
C
100
AcDbDictionary
281
     1
  0
DICTIONARY
  5
69
102
{ACAD_REACTORS
330
C
102
}
330
C
100
AcDbDictionary
281
     1
  3
Standard
350
6A
  0
DICTIONARY
  5
2A
102
{ACAD_REACTORS
330
C
102
}
330
C
100
AcDbDictionary
281
     1
  3
2dWireframe
350
2F
  3
Basic
350
32
  3
Brighten
350
36
  3
ColorChange
350
3A
  3
Conceptual
350
34
  3
Dim
350
35
  3
EdgeColorOff
350
3D
  3
Facepattern
350
39
  3
Flat
350
2B
  3
FlatWithEdges
350
2C
  3
Gouraud
350
2D
  3
GouraudWithEdges
350
2E
  3
Hidden
350
31
  3
JitterOff
350
3B
  3
Linepattern
350
38
  3
OverhangOff
350
3C
  3
Realistic
350
33
  3
Shaded
350
42
  3
Shaded with edges
350
41
  3
Shades of Gray
350
3E
  3
Sketchy
350
3F
  3
Thicken
350
37
  3
Wireframe
350
30
  3
X-Ray
350
40
  0
XRECORD
  5
3A7
102
{ACAD_REACTORS
330
C
102
}
330
C
100
AcDbXrecord
280
     1
 90
        1
330
6A
  0
DICTIONARY
  5
36F
102
{ACAD_REACTORS
330
C
102
}
330
C
100
AcDbDictionary
281
     1
  3
CANNOSCALE
350
370
  3
CMLEADERSTYLE
350
3A9
  3
CTABLESTYLE
350
3A8
  3
XCLIPFRAME
350
371
  0
LAYOUT
  5
1E
102
{ACAD_REACTORS
330
1A
102
}
330
1A
100
AcDbPlotSettings
  1

  2
none_device
  4

  6

 40
0.0
 41
0.0
 42
0.0
 43
0.0
 44
0.0
 45
0.0
 46
0.0
 47
0.0
 48
0.0
 49
0.0
140
0.0
141
0.0
142
1.0
143
1.0
 70
   688
 72
     0
 73
     0
 74
     5
  7

 75
    16
 76
     0
 77
     2
 78
   300
147
1.0
148
0.0
149
0.0
100
AcDbLayout
  1
Layout1
 70
     1
 71
     1
 10
0.0
 20
0.0
 11
12.0
 21
9.0
 12
0.0
 22
0.0
 32
0.0
 14
1.000000000000000E+20
 24
1.000000000000000E+20
 34
1.000000000000000E+20
 15
-1.000000000000000E+20
 25
-1.000000000000000E+20
 35
-1.000000000000000E+20
146
0.0
 13
0.0
 23
0.0
 33
0.0
 16
1.0
 26
0.0
 36
0.0
 17
0.0
 27
1.0
 37
0.0
 76
     0
330
1B
  0
LAYOUT
  5
26
102
{ACAD_REACTORS
330
1A
102
}
330
1A
100
AcDbPlotSettings
  1

  2
none_device
  4

  6

 40
0.0
 41
0.0
 42
0.0
 43
0.0
 44
0.0
 45
0.0
 46
0.0
 47
0.0
 48
0.0
 49
0.0
140
0.0
141
0.0
142
1.0
143
1.0
 70
   688
 72
     0
 73
     0
 74
     5
  7

 75
    16
 76
     0
 77
     2
 78
   300
147
1.0
148
0.0
149
0.0
100
AcDbLayout
  1
Layout2
 70
     1
 71
     2
 10
0.0
 20
0.0
 11
0.0
 21
0.0
 12
0.0
 22
0.0
 32
0.0
 14
0.0
 24
0.0
 34
0.0
 15
0.0
 25
0.0
 35
0.0
146
0.0
 13
0.0
 23
0.0
 33
0.0
 16
1.0
 26
0.0
 36
0.0
 17
0.0
 27
1.0
 37
0.0
 76
     0
330
23
  0
LAYOUT
  5
22
102
{ACAD_REACTORS
330
1A
102
}
330
1A
100
AcDbPlotSettings
  1

  2
none_device
  4
Letter_(8.50_x_11.00_Inches)
  6

 40
6.35
 41
6.35
 42
6.35000508
 43
6.35000508
 44
215.9
 45
279.4
 46
0.0
 47
0.0
 48
0.0
 49
0.0
140
0.0
141
0.0
142
1.0
143
1.0
 70
  1712
 72
     0
 73
     0
 74
     0
  7

 75
     0
 76
     0
 77
     2
 78
   300
147
1.0
148
0.0
149
0.0
100
AcDbLayout
  1
Model
 70
     1
 71
     0
 10
0.0
 20
0.0
 11
12.0
 21
9.0
 12
0.0
 22
0.0
 32
0.0
 14
1.000000000000000E+20
 24
1.000000000000000E+20
 34
1.000000000000000E+20
 15
-1.000000000000000E+20
 25
-1.000000000000000E+20
 35
-1.000000000000000E+20
146
0.0
 13
0.0
 23
0.0
 33
0.0
 16
1.0
 26
0.0
 36
0.0
 17
0.0
 27
1.0
 37
0.0
 76
     0
330
1F
331
29
  0
MATERIAL
  5
45
102
{ACAD_REACTORS
330
43
102
}
330
43
100
AcDbMaterial
  1
ByBlock
 72
     1
 94
      127
  0
MATERIAL
  5
44
102
{ACAD_REACTORS
330
43
102
}
330
43
100
AcDbMaterial
  1
ByLayer
 72
     1
 94
      127
  0
MATERIAL
  5
46
102
{ACAD_REACTORS
330
43
102
}
330
43
100
AcDbMaterial
  1
Global
 72
     1
 94
      127
  0
MLEADERSTYLE
  5
6C
102
{ACAD_REACTORS
330
6B
102
}
102
{ACAD_XDICTIONARY
360
3A5
102
}
330
6B
100
AcDbMLeaderStyle
170
     2
171
     1
172
     0
 90
        2
 40
0.0
 41
0.0
173
     1
 91
-1056964608
340
14
 92
       -2
290
     1
 42
0.09
291
     1
 43
0.36
  3
Standard
341
0
 44
0.18
300

342
11
174
     1
178
     6
175
     1
176
     0
 93
-1056964608
 45
0.18
292
     0
297
     0
 46
0.18
343
0
 94
-1056964608
 47
1.0
 49
1.0
140
1.0
293
     1
141
0.0
294
     1
177
     0
142
1.0
295
     0
296
     0
143
0.125
1001
ACAD_MLEADERVER
1070
     2
  0
MLINESTYLE
  5
18
102
{ACAD_REACTORS
330
17
102
}
330
17
100
AcDbMlineStyle
  2
Standard
 70
     0
  3

 62
   256
 51
90.0
 52
90.0
 71
     2
 49
0.5
 62
   256
  6
BYLAYER
 49
-0.5
 62
   256
  6
BYLAYER
  0
ACDBPLACEHOLDER
  5
F
102
{ACAD_REACTORS
330
E
102
}
330
E
  0
SCALE
  5
48
102
{ACAD_REACTORS
330
47
102
}
330
47
100
AcDbScale
 70
     0
300
1:1
140
1.0
141
1.0
290
     1
  0
SCALE
  5
49
102
{ACAD_REACTORS
330
47
102
}
330
47
100
AcDbScale
 70
     0
300
1:2
140
1.0
141
2.0
290
     0
  0
SCALE
  5
4A
102
{ACAD_REACTORS
330
47
102
}
330
47
100
AcDbScale
 70
     0
300
1:4
140
1.0
141
4.0
290
     0
  0
SCALE
  5
4B
102
{ACAD_REACTORS
330
47
102
}
330
47
100
AcDbScale
 70
     0
300
1:5
140
1.0
141
5.0
290
     0
  0
SCALE
  5
4C
102
{ACAD_REACTORS
330
47
102
}
330
47
100
AcDbScale
 70
     0
300
1:8
140
1.0
141
8.0
290
     0
  0
SCALE
  5
4D
102
{ACAD_REACTORS
330
47
102
}
330
47
100
AcDbScale
 70
     0
300
1:10
140
1.0
141
10.0
290
     0
  0
SCALE
  5
4E
102
{ACAD_REACTORS
330
47
102
}
330
47
100
AcDbScale
 70
     0
300
1:16
140
1.0
141
16.0
290
     0
  0
SCALE
  5
4F
102
{ACAD_REACTORS
330
47
102
}
330
47
100
AcDbScale
 70
     0
300
1:20
140
1.0
141
20.0
290
     0
  0
SCALE
  5
50
102
{ACAD_REACTORS
330
47
102
}
330
47
100
AcDbScale
 70
     0
300
1:30
140
1.0
141
30.0
290
     0
  0
SCALE
  5
51
102
{ACAD_REACTORS
330
47
102
}
330
47
100
AcDbScale
 70
     0
300
1:40
140
1.0
141
40.0
290
     0
  0
SCALE
  5
52
102
{ACAD_REACTORS
330
47
102
}
330
47
100
AcDbScale
 70
     0
300
1:50
140
1.0
141
50.0
290
     0
  0
SCALE
  5
53
102
{ACAD_REACTORS
330
47
102
}
330
47
100
AcDbScale
 70
     0
300
1:100
140
1.0
141
100.0
290
     0
  0
SCALE
  5
54
102
{ACAD_REACTORS
330
47
102
}
330
47
100
AcDbScale
 70
     0
300
2:1
140
2.0
141
1.0
290
     0
  0
SCALE
  5
55
102
{ACAD_REACTORS
330
47
102
}
330
47
100
AcDbScale
 70
     0
300
4:1
140
4.0
141
1.0
290
     0
  0
SCALE
  5
56
102
{ACAD_REACTORS
330
47
102
}
330
47
100
AcDbScale
 70
     0
300
8:1
140
8.0
141
1.0
290
     0
  0
SCALE
  5
57
102
{ACAD_REACTORS
330
47
102
}
330
47
100
AcDbScale
 70
     0
300
10:1
140
10.0
141
1.0
290
     0
  0
SCALE
  5
58
102
{ACAD_REACTORS
330
47
102
}
330
47
100
AcDbScale
 70
     0
300
100:1
140
100.0
141
1.0
290
     0
  0
SCALE
  5
59
102
{ACAD_REACTORS
330
47
102
}
330
47
100
AcDbScale
 70
     0
300
1/128" = 1'-0"
140
0.0078125
141
12.0
290
     0
  0
SCALE
  5
5A
102
{ACAD_REACTORS
330
47
102
}
330
47
100
AcDbScale
 70
     0
300
1/64" = 1'-0"
140
0.015625
141
12.0
290
     0
  0
SCALE
  5
5B
102
{ACAD_REACTORS
330
47
102
}
330
47
100
AcDbScale
 70
     0
300
1/32" = 1'-0"
140
0.03125
141
12.0
290
     0
  0
SCALE
  5
5C
102
{ACAD_REACTORS
330
47
102
}
330
47
100
AcDbScale
 70
     0
300
1/16" = 1'-0"
140
0.0625
141
12.0
290
     0
  0
SCALE
  5
5D
102
{ACAD_REACTORS
330
47
102
}
330
47
100
AcDbScale
 70
     0
300
3/32" = 1'-0"
140
0.09375
141
12.0
290
     0
  0
SCALE
  5
5E
102
{ACAD_REACTORS
330
47
102
}
330
47
100
AcDbScale
 70
     0
300
1/8" = 1'-0"
140
0.125
141
12.0
290
     0
  0
SCALE
  5
5F
102
{ACAD_REACTORS
330
47
102
}
330
47
100
AcDbScale
 70
     0
300
3/16" = 1'-0"
140
0.1875
141
12.0
290
     0
  0
SCALE
  5
60
102
{ACAD_REACTORS
330
47
102
}
330
47
100
AcDbScale
 70
     0
300
1/4" = 1'-0"
140
0.25
141
12.0
290
     0
  0
SCALE
  5
61
102
{ACAD_REACTORS
330
47
102
}
330
47
100
AcDbScale
 70
     0
300
3/8" = 1'-0"
140
0.375
141
12.0
290
     0
  0
SCALE
  5
62
102
{ACAD_REACTORS
330
47
102
}
330
47
100
AcDbScale
 70
     0
300
1/2" = 1'-0"
140
0.5
141
12.0
290
     0
  0
SCALE
  5
63
102
{ACAD_REACTORS
330
47
102
}
330
47
100
AcDbScale
 70
     0
300
3/4" = 1'-0"
140
0.75
141
12.0
290
     0
  0
SCALE
  5
64
102
{ACAD_REACTORS
330
47
102
}
330
47
100
AcDbScale
 70
     0
300
1" = 1'-0"
140
1.0
141
12.0
290
     0
  0
SCALE
  5
65
102
{ACAD_REACTORS
330
47
102
}
330
47
100
AcDbScale
 70
     0
300
1-1/2" = 1'-0"
140
1.5
141
12.0
290
     0
  0
SCALE
  5
66
102
{ACAD_REACTORS
330
47
102
}
330
47
100
AcDbScale
 70
     0
300
3" = 1'-0"
140
3.0
141
12.0
290
     0
  0
SCALE
  5
67
102
{ACAD_REACTORS
330
47
102
}
330
47
100
AcDbScale
 70
     0
300
6" = 1'-0"
140
6.0
141
12.0
290
     0
  0
SCALE
  5
68
102
{ACAD_REACTORS
330
47
102
}
330
47
100
AcDbScale
 70
     0
300
1'-0" = 1'-0"
140
12.0
141
12.0
290
     0
  0
TABLESTYLE
  5
6A
102
{ACAD_REACTORS
330
69
102
}
102
{ACAD_XDICTIONARY
360
3A2
102
}
330
69
100
AcDbTableStyle
  3
Standard
 70
     0
 71
     0
 40
0.06
 41
0.06
280
     0
281
     0
  7
Standard
140
0.18
170
     2
 62
     0
 63
   257
283
     0
 90
        4
 91
        0
  1

274
    -2
284
     1
 64
     0
275
    -2
285
     1
 65
     0
276
    -2
286
     1
 66
     0
277
    -2
287
     1
 67
     0
278
    -2
288
     1
 68
     0
279
    -2
289
     1
 69
     0
  7
Standard
140
0.25
170
     5
 62
     0
 63
   257
283
     0
 90
        4
 91
        0
  1

274
    -2
284
     1
 64
     0
275
    -2
285
     1
 65
     0
276
    -2
286
     1
 66
     0
277
    -2
287
     1
 67
     0
278
    -2
288
     1
 68
     0
279
    -2
289
     1
 69
     0
  7
Standard
140
0.18
170
     5
 62
     0
 63
   257
283
     0
 90
        4
 91
        0
  1

274
    -2
284
     1
 64
     0
275
    -2
285
     1
 65
     0
276
    -2
286
     1
 66
     0
277
    -2
287
     1
 67
     0
278
    -2
288
     1
 68
     0
279
    -2
289
     1
 69
     0
  0
VISUALSTYLE
  5
2F
102
{ACAD_REACTORS
330
2A
102
}
102
{ACAD_XDICTIONARY
360
37A
102
}
330
2A
100
AcDbVisualStyle
  2
2dWireframe
 70
     4
 71
     0
 72
     2
 73
     0
 90
        0
 40
0.6
 41
30.0
 62
     5
 63
     7
421
 16777215
 74
     1
 91
        4
 64
     7
 65
   257
 75
     1
175
     1
 42
1.0
 92
        0
 66
   257
 43
1.0
 76
     1
 77
     6
 78
     2
 67
     7
 79
     5
170
     0
171
     0
290
     0
174
     0
 93
        1
 44
0.0
173
     0
291
     0
 45
0.0
  0
VISUALSTYLE
  5
32
102
{ACAD_REACTORS
330
2A
102
}
102
{ACAD_XDICTIONARY
360
380
102
}
330
2A
100
AcDbVisualStyle
  2
Basic
 70
     7
 71
     1
 72
     0
 73
     1
 90
        0
 40
0.6
 41
30.0
 62
     5
 63
     7
421
 16777215
 74
     0
 91
        4
 64
     7
 65
   257
 75
     1
175
     1
 42
1.0
 92
        8
 66
     7
 43
1.0
 76
     1
 77
     6
 78
     2
 67
     7
 79
     5
170
     0
171
     0
290
     0
174
     0
 93
        1
 44
0.0
173
     0
291
     1
 45
0.0
  0
VISUALSTYLE
  5
36
102
{ACAD_REACTORS
330
2A
102
}
102
{ACAD_XDICTIONARY
360
388
102
}
330
2A
100
AcDbVisualStyle
  2
Brighten
 70
    12
 71
     2
 72
     2
 73
     0
 90
        0
 40
0.6
 41
30.0
 62
     5
 63
     7
421
 16777215
 74
     1
 91
        4
 64
     7
 65
   257
 75
     1
175
     1
 42
1.0
 92
        8
 66
     7
 43
1.0
 76
     1
 77
     6
 78
     2
 67
     7
 79
     5
170
     0
171
     0
290
     0
174
     0
 93
        1
 44
50.0
173
     0
291
     1
 45
0.0
  0
VISUALSTYLE
  5
3A
102
{ACAD_REACTORS
330
2A
102
}
102
{ACAD_XDICTIONARY
360
390
102
}
330
2A
100
AcDbVisualStyle
  2
ColorChange
 70
    16
 71
     2
 72
     2
 73
     3
 90
        0
 40
0.6
 41
30.0
 62
     5
 63
     8
421
  8421504
 74
     1
 91
        4
 64
     7
 65
   257
 75
     1
175
     1
 42
1.0
 92
        8
 66
     8
424
  8421504
 43
1.0
 76
     1
 77
     6
 78
     2
 67
     7
 79
     5
170
     0
171
     0
290
     0
174
     0
 93
        1
 44
0.0
173
     0
291
     1
 45
0.0
  0
VISUALSTYLE
  5
34
102
{ACAD_REACTORS
330
2A
102
}
102
{ACAD_XDICTIONARY
360
384
102
}
330
2A
100
AcDbVisualStyle
  2
Conceptual
 70
     9
 71
     3
 72
     2
 73
     0
 90
        0
 40
0.6
 41
30.0
 62
     5
 63
     7
421
 16777215
 74
     2
 91
        2
 64
     7
 65
   257
 75
     1
175
     1
 42
179.0
 92
        8
 66
     7
 43
1.0
 76
     1
 77
     6
 78
     2
 67
     7
 79
     3
170
     0
171
     0
290
     0
174
     0
 93
        1
 44
0.0
173
     0
291
     0
 45
0.0
  0
VISUALSTYLE
  5
35
102
{ACAD_REACTORS
330
2A
102
}
102
{ACAD_XDICTIONARY
360
386
102
}
330
2A
100
AcDbVisualStyle
  2
Dim
 70
    11
 71
     2
 72
     2
 73
     0
 90
        0
 40
0.6
 41
30.0
 62
     5
 63
     7
421
 16777215
 74
     1
 91
        4
 64
     7
 65
   257
 75
     1
175
     1
 42
1.0
 92
        8
 66
     7
 43
1.0
 76
     1
 77
     6
 78
     2
 67
     7
 79
     5
170
     0
171
     0
290
     0
174
     0
 93
        1
 44
-50.0
173
     0
291
     1
 45
0.0
  0
VISUALSTYLE
  5
3D
102
{ACAD_REACTORS
330
2A
102
}
102
{ACAD_XDICTIONARY
360
396
102
}
330
2A
100
AcDbVisualStyle
  2
EdgeColorOff
 70
    22
 71
     2
 72
     2
 73
     0
 90
        0
 40
0.6
 41
30.0
 62
     5
 63
     7
421
 16777215
 74
     1
 91
        4
 64
     7
 65
   257
 75
     1
175
     1
 42
1.0
 92
        8
 66
     7
 43
1.0
 76
     1
 77
     6
 78
     2
 67
     7
 79
     5
170
     0
171
     0
290
     0
174
     0
 93
        1
 44
0.0
173
     0
291
     1
 45
0.0
  0
VISUALSTYLE
  5
39
102
{ACAD_REACTORS
330
2A
102
}
102
{ACAD_XDICTIONARY
360
38E
102
}
330
2A
100
AcDbVisualStyle
  2
Facepattern
 70
    15
 71
     2
 72
     2
 73
     0
 90
        0
 40
0.6
 41
30.0
 62
     5
 63
     7
421
 16777215
 74
     1
 91
        4
 64
     7
 65
   257
 75
     1
175
     1
 42
1.0
 92
        8
 66
     7
 43
1.0
 76
     1
 77
     6
 78
     2
 67
     7
 79
     5
170
     0
171
     0
290
     0
174
     0
 93
        1
 44
0.0
173
     0
291
     1
 45
0.0
  0
VISUALSTYLE
  5
2B
102
{ACAD_REACTORS
330
2A
102
}
102
{ACAD_XDICTIONARY
360
372
102
}
330
2A
100
AcDbVisualStyle
  2
Flat
 70
     0
 71
     2
 72
     1
 73
     1
 90
        2
 40
0.6
 41
30.0
 62
     5
 63
     7
421
 16777215
 74
     0
 91
        0
 64
     7
 65
   257
 75
     1
175
     1
 42
1.0
 92
        8
 66
     7
 43
1.0
 76
     1
 77
     6
 78
     2
 67
     7
 79
     5
170
     0
171
     0
290
     0
174
     0
 93
       13
 44
0.0
173
     0
291
     1
 45
0.0
  0
VISUALSTYLE
  5
2C
102
{ACAD_REACTORS
330
2A
102
}
102
{ACAD_XDICTIONARY
360
374
102
}
330
2A
100
AcDbVisualStyle
  2
FlatWithEdges
 70
     1
 71
     2
 72
     1
 73
     1
 90
        2
 40
0.6
 41
30.0
 62
     5
 63
     7
421
 16777215
 74
     1
 91
        0
 64
     7
 65
   257
 75
     1
175
     1
 42
1.0
 92
        0
 66
   257
 43
1.0
 76
     1
 77
     6
 78
     2
 67
     7
 79
     5
170
     0
171
     0
290
     0
174
     0
 93
       13
 44
0.0
173
     0
291
     1
 45
0.0
  0
VISUALSTYLE
  5
2D
102
{ACAD_REACTORS
330
2A
102
}
102
{ACAD_XDICTIONARY
360
376
102
}
330
2A
100
AcDbVisualStyle
  2
Gouraud
 70
     2
 71
     2
 72
     2
 73
     1
 90
        2
 40
0.6
 41
30.0
 62
     5
 63
     7
421
 16777215
 74
     0
 91
        0
 64
     7
 65
   257
 75
     1
175
     1
 42
1.0
 92
        0
 66
     7
 43
1.0
 76
     1
 77
     6
 78
     2
 67
     7
 79
     5
170
     0
171
     0
290
     0
174
     0
 93
       13
 44
0.0
173
     0
291
     1
 45
0.0
  0
VISUALSTYLE
  5
2E
102
{ACAD_REACTORS
330
2A
102
}
102
{ACAD_XDICTIONARY
360
378
102
}
330
2A
100
AcDbVisualStyle
  2
GouraudWithEdges
 70
     3
 71
     2
 72
     2
 73
     1
 90
        2
 40
0.6
 41
30.0
 62
     5
 63
     7
421
 16777215
 74
     1
 91
        0
 64
     7
 65
   257
 75
     1
175
     1
 42
1.0
 92
        0
 66
   257
 43
1.0
 76
     1
 77
     6
 78
     2
 67
     7
 79
     5
170
     0
171
     0
290
     0
174
     0
 93
       13
 44
0.0
173
     0
291
     1
 45
0.0
  0
VISUALSTYLE
  5
31
102
{ACAD_REACTORS
330
2A
102
}
102
{ACAD_XDICTIONARY
360
37E
102
}
330
2A
100
AcDbVisualStyle
  2
Hidden
 70
     6
 71
     1
 72
     2
 73
     2
 90
        0
 40
0.6
 41
30.0
 62
     5
 63
     7
421
 16777215
 74
     2
 91
        2
 64
     7
 65
   257
 75
     2
175
     1
 42
40.0
 92
        0
 66
   257
 43
1.0
 76
     1
 77
     6
 78
     2
 67
     7
 79
     3
170
     0
171
     0
290
     0
174
     0
 93
        1
 44
0.0
173
     0
291
     0
 45
0.0
  0
VISUALSTYLE
  5
3B
102
{ACAD_REACTORS
330
2A
102
}
102
{ACAD_XDICTIONARY
360
392
102
}
330
2A
100
AcDbVisualStyle
  2
JitterOff
 70
    20
 71
     2
 72
     2
 73
     0
 90
        0
 40
0.6
 41
30.0
 62
     5
 63
     7
421
 16777215
 74
     1
 91
        4
 64
     7
 65
   257
 75
     1
175
     1
 42
1.0
 92
       10
 66
     7
 43
1.0
 76
     1
 77
     6
 78
     2
 67
     7
 79
     5
170
     0
171
     0
290
     0
174
     0
 93
        1
 44
0.0
173
     0
291
     1
 45
0.0
  0
VISUALSTYLE
  5
38
102
{ACAD_REACTORS
330
2A
102
}
102
{ACAD_XDICTIONARY
360
38C
102
}
330
2A
100
AcDbVisualStyle
  2
Linepattern
 70
    14
 71
     2
 72
     2
 73
     0
 90
        0
 40
0.6
 41
30.0
 62
     5
 63
     7
421
 16777215
 74
     1
 91
        4
 64
     7
 65
   257
 75
     7
175
     7
 42
1.0
 92
        8
 66
     7
 43
1.0
 76
     1
 77
     6
 78
     2
 67
     7
 79
     5
170
     0
171
     0
290
     0
174
     0
 93
        1
 44
0.0
173
     0
291
     1
 45
0.0
  0
VISUALSTYLE
  5
3C
102
{ACAD_REACTORS
330
2A
102
}
102
{ACAD_XDICTIONARY
360
394
102
}
330
2A
100
AcDbVisualStyle
  2
OverhangOff
 70
    21
 71
     2
 72
     2
 73
     0
 90
        0
 40
0.6
 41
30.0
 62
     5
 63
     7
421
 16777215
 74
     1
 91
        4
 64
     7
 65
   257
 75
     1
175
     1
 42
1.0
 92
        9
 66
     7
 43
1.0
 76
     1
 77
     6
 78
     2
 67
     7
 79
     5
170
     0
171
     0
290
     0
174
     0
 93
        1
 44
0.0
173
     0
291
     1
 45
0.0
  0
VISUALSTYLE
  5
33
102
{ACAD_REACTORS
330
2A
102
}
102
{ACAD_XDICTIONARY
360
382
102
}
330
2A
100
AcDbVisualStyle
  2
Realistic
 70
     8
 71
     2
 72
     3
 73
     0
 90
        2
 40
0.6
 41
30.0
 62
     5
 63
     7
421
 16777215
 74
     0
 91
        0
 64
     7
 65
   257
 75
     1
175
     1
 42
1.0
 92
        8
 66
   257
 43
1.0
 76
     1
 77
     6
 78
     2
 67
     7
 79
     3
170
     0
171
     0
290
     0
174
     0
 93
       13
 44
0.0
173
     0
291
     0
 45
0.0
  0
VISUALSTYLE
  5
42
102
{ACAD_REACTORS
330
2A
102
}
102
{ACAD_XDICTIONARY
360
3A0
102
}
330
2A
100
AcDbVisualStyle
  2
Shaded
 70
    27
 71
     2
 72
     2
 73
     1
 90
        2
 40
0.6
 41
30.0
 62
     5
 63
     7
421
 16777215
 74
     0
 91
        4
 64
     7
 65
   257
 75
     1
175
     1
 42
1.0
 92
        8
 66
   257
 43
1.0
 76
     1
 77
     6
 78
     2
 67
     8
425
  7895160
 79
     3
170
     0
171
     0
290
     0
174
     0
 93
        5
 44
0.0
173
     0
291
     0
 45
0.0
  0
VISUALSTYLE
  5
41
102
{ACAD_REACTORS
330
2A
102
}
102
{ACAD_XDICTIONARY
360
39E
102
}
330
2A
100
AcDbVisualStyle
  2
Shaded with edges
 70
    26
 71
     2
 72
     2
 73
     1
 90
        2
 40
0.6
 41
30.0
 62
     5
 63
     7
421
 16777215
 74
     1
 91
       10
 64
     7
 65
   257
 75
     2
175
     1
 42
1.0
 92
        8
 66
   257
 43
1.0
 76
     1
 77
     6
 78
     2
 67
     7
 79
     3
170
     0
171
     0
290
     0
174
     0
 93
        5
 44
0.0
173
     0
291
     0
 45
0.0
  0
VISUALSTYLE
  5
3E
102
{ACAD_REACTORS
330
2A
102
}
102
{ACAD_XDICTIONARY
360
398
102
}
330
2A
100
AcDbVisualStyle
  2
Shades of Gray
 70
    23
 71
     2
 72
     2
 73
     3
 90
        0
 40
0.6
 41
30.0
 62
     5
 63
     7
421
 16777215
 74
     2
 91
        2
 64
     7
 65
     7
 75
     1
175
     1
 42
40.0
 92
        8
 66
     7
 43
1.0
 76
     1
 77
     6
 78
     2
 67
     7
 79
     3
170
     0
171
     0
290
     0
174
     0
 93
        1
 44
0.0
173
     0
291
     0
 45
0.0
  0
VISUALSTYLE
  5
3F
102
{ACAD_REACTORS
330
2A
102
}
102
{ACAD_XDICTIONARY
360
39A
102
}
330
2A
100
AcDbVisualStyle
  2
Sketchy
 70
    24
 71
     1
 72
     2
 73
     2
 90
        0
 40
0.6
 41
30.0
 62
     5
 63
     7
421
 16777215
 74
     2
 91
        2
 64
     7
 65
     7
 75
     1
175
     1
 42
40.0
 92
       11
 66
     7
 43
1.0
 76
     1
 77
     6
 78
     2
 67
     7
 79
     6
170
     0
171
     0
290
     0
174
     0
 93
        1
 44
0.0
173
     0
291
     0
 45
0.0
  0
VISUALSTYLE
  5
37
102
{ACAD_REACTORS
330
2A
102
}
102
{ACAD_XDICTIONARY
360
38A
102
}
330
2A
100
AcDbVisualStyle
  2
Thicken
 70
    13
 71
     2
 72
     2
 73
     0
 90
        0
 40
0.6
 41
30.0
 62
     5
 63
     7
421
 16777215
 74
     1
 91
        4
 64
     7
 65
   257
 75
     1
175
     1
 42
1.0
 92
       12
 66
     7
 43
1.0
 76
     1
 77
     6
 78
     2
 67
     7
 79
     5
170
     0
171
     0
290
     0
174
     0
 93
        1
 44
0.0
173
     0
291
     1
 45
0.0
  0
VISUALSTYLE
  5
30
102
{ACAD_REACTORS
330
2A
102
}
102
{ACAD_XDICTIONARY
360
37C
102
}
330
2A
100
AcDbVisualStyle
  2
Wireframe
 70
     5
 71
     0
 72
     2
 73
     0
 90
        0
 40
0.6
 41
30.0
 62
     5
 63
     7
421
 16777215
 74
     1
 91
        4
 64
     7
 65
   257
 75
     1
175
     1
 42
1.0
 92
        0
 66
   257
 43
1.0
 76
     1
 77
     6
 78
     2
 67
     7
 79
     3
170
     0
171
     0
290
     0
174
     0
 93
        1
 44
0.0
173
     0
291
     0
 45
0.0
  0
VISUALSTYLE
  5
40
102
{ACAD_REACTORS
330
2A
102
}
102
{ACAD_XDICTIONARY
360
39C
102
}
330
2A
100
AcDbVisualStyle
  2
X-Ray
 70
    25
 71
     2
 72
     2
 73
     1
 90
        1
 40
0.5
 41
30.0
 62
     5
 63
     7
421
 16777215
 74
     1
 91
        0
 64
     7
 65
   257
 75
     1
175
     1
 42
1.0
 92
        8
 66
     7
 43
1.0
 76
     1
 77
     6
 78
     2
 67
     7
 79
     3
170
     0
171
     0
290
     0
174
     0
 93
       13
 44
0.0
173
     0
291
     0
 45
0.0
  0
DICTIONARYVAR
  5
370
102
{ACAD_REACTORS
330
36F
102
}
330
36F
100
DictionaryVariables
280
     0
  1
1:1
  0
DICTIONARYVAR
  5
3A9
102
{ACAD_REACTORS
330
36F
102
}
330
36F
100
DictionaryVariables
280
     0
  1
Standard
  0
DICTIONARYVAR
  5
3A8
102
{ACAD_REACTORS
330
36F
102
}
330
36F
100
DictionaryVariables
280
     0
  1
Standard
  0
DICTIONARYVAR
  5
371
102
{ACAD_REACTORS
330
36F
102
}
330
36F
100
DictionaryVariables
280
     0
  1
2
  0
DICTIONARY
  5
3A5
330
6C
100
AcDbDictionary
280
     1
281
     1
  3
ACAD_XREC_ROUNDTRIP
360
3A6
  0
DICTIONARY
  5
3A2
330
6A
100
AcDbDictionary
280
     1
281
     1
  3
ACAD_ROUNDTRIP_2008_TABLESTYLE_CELLSTYLEMAP
360
3A3
  0
DICTIONARY
  5
37A
330
2F
100
AcDbDictionary
280
     1
281
     1
  3
ACAD_XREC_ROUNDTRIP
360
37B
  0
DICTIONARY
  5
380
330
32
100
AcDbDictionary
280
     1
281
     1
  3
ACAD_XREC_ROUNDTRIP
360
381
  0
DICTIONARY
  5
388
330
36
100
AcDbDictionary
280
     1
281
     1
  3
ACAD_XREC_ROUNDTRIP
360
389
  0
DICTIONARY
  5
390
330
3A
100
AcDbDictionary
280
     1
281
     1
  3
ACAD_XREC_ROUNDTRIP
360
391
  0
DICTIONARY
  5
384
330
34
100
AcDbDictionary
280
     1
281
     1
  3
ACAD_XREC_ROUNDTRIP
360
385
  0
DICTIONARY
  5
386
330
35
100
AcDbDictionary
280
     1
281
     1
  3
ACAD_XREC_ROUNDTRIP
360
387
  0
DICTIONARY
  5
396
330
3D
100
AcDbDictionary
280
     1
281
     1
  3
ACAD_XREC_ROUNDTRIP
360
397
  0
DICTIONARY
  5
38E
330
39
100
AcDbDictionary
280
     1
281
     1
  3
ACAD_XREC_ROUNDTRIP
360
38F
  0
DICTIONARY
  5
372
330
2B
100
AcDbDictionary
280
     1
281
     1
  3
ACAD_XREC_ROUNDTRIP
360
373
  0
DICTIONARY
  5
374
330
2C
100
AcDbDictionary
280
     1
281
     1
  3
ACAD_XREC_ROUNDTRIP
360
375
  0
DICTIONARY
  5
376
330
2D
100
AcDbDictionary
280
     1
281
     1
  3
ACAD_XREC_ROUNDTRIP
360
377
  0
DICTIONARY
  5
378
330
2E
100
AcDbDictionary
280
     1
281
     1
  3
ACAD_XREC_ROUNDTRIP
360
379
  0
DICTIONARY
  5
37E
330
31
100
AcDbDictionary
280
     1
281
     1
  3
ACAD_XREC_ROUNDTRIP
360
37F
  0
DICTIONARY
  5
392
330
3B
100
AcDbDictionary
280
     1
281
     1
  3
ACAD_XREC_ROUNDTRIP
360
393
  0
DICTIONARY
  5
38C
330
38
100
AcDbDictionary
280
     1
281
     1
  3
ACAD_XREC_ROUNDTRIP
360
38D
  0
DICTIONARY
  5
394
330
3C
100
AcDbDictionary
280
     1
281
     1
  3
ACAD_XREC_ROUNDTRIP
360
395
  0
DICTIONARY
  5
382
330
33
100
AcDbDictionary
280
     1
281
     1
  3
ACAD_XREC_ROUNDTRIP
360
383
  0
DICTIONARY
  5
3A0
330
42
100
AcDbDictionary
280
     1
281
     1
  3
ACAD_XREC_ROUNDTRIP
360
3A1
  0
DICTIONARY
  5
39E
330
41
100
AcDbDictionary
280
     1
281
     1
  3
ACAD_XREC_ROUNDTRIP
360
39F
  0
DICTIONARY
  5
398
330
3E
100
AcDbDictionary
280
     1
281
     1
  3
ACAD_XREC_ROUNDTRIP
360
399
  0
DICTIONARY
  5
39A
330
3F
100
AcDbDictionary
280
     1
281
     1
  3
ACAD_XREC_ROUNDTRIP
360
39B
  0
DICTIONARY
  5
38A
330
37
100
AcDbDictionary
280
     1
281
     1
  3
ACAD_XREC_ROUNDTRIP
360
38B
  0
DICTIONARY
  5
37C
330
30
100
AcDbDictionary
280
     1
281
     1
  3
ACAD_XREC_ROUNDTRIP
360
37D
  0
DICTIONARY
  5
39C
330
40
100
AcDbDictionary
280
     1
281
     1
  3
ACAD_XREC_ROUNDTRIP
360
39D
  0
XRECORD
  5
3A6
102
{ACAD_REACTORS
330
3A5
102
}
330
3A5
100
AcDbXrecord
280
     1
102
ACAD_ROUNDTRIP_2010_MLEADER_STYLE
  0
CELLSTYLEMAP
  5
3A3
102
{ACAD_REACTORS
330
3A2
102
}
330
3A2
100
AcDbCellStyleMap
 90
        3
300
CELLSTYLE
  1
TABLEFORMAT_BEGIN
 90
        5
170
     1
 91
        0
 92
    32768
 62
   257
 93
        1
300
CONTENTFORMAT
  1
CONTENTFORMAT_BEGIN
 90
        0
 91
        0
 92
        4
 93
        0
300

 40
0.0
140
1.0
 94
        5
 62
     0
340
11
144
0.25
309
CONTENTFORMAT_END
171
     1
301
MARGIN
  1
CELLMARGIN_BEGIN
 40
0.06
 40
0.06
 40
0.06
 40
0.06
 40
0.06
 40
0.06
309
CELLMARGIN_END
 94
        6
 95
        1
302
GRIDFORMAT
  1
GRIDFORMAT_BEGIN
 90
        0
 91
        1
 62
     0
 92
       -2
340
14
 93
        0
 40
0.045
309
GRIDFORMAT_END
 95
        2
302
GRIDFORMAT
  1
GRIDFORMAT_BEGIN
 90
        0
 91
        1
 62
     0
 92
       -2
340
14
 93
        0
 40
0.045
309
GRIDFORMAT_END
 95
        4
302
GRIDFORMAT
  1
GRIDFORMAT_BEGIN
 90
        0
 91
        1
 62
     0
 92
       -2
340
14
 93
        0
 40
0.045
309
GRIDFORMAT_END
 95
        8
302
GRIDFORMAT
  1
GRIDFORMAT_BEGIN
 90
        0
 91
        1
 62
     0
 92
       -2
340
14
 93
        0
 40
0.045
309
GRIDFORMAT_END
 95
       16
302
GRIDFORMAT
  1
GRIDFORMAT_BEGIN
 90
        0
 91
        1
 62
     0
 92
       -2
340
14
 93
        0
 40
0.045
309
GRIDFORMAT_END
 95
       32
302
GRIDFORMAT
  1
GRIDFORMAT_BEGIN
 90
        0
 91
        1
 62
     0
 92
       -2
340
14
 93
        0
 40
0.045
309
GRIDFORMAT_END
309
TABLEFORMAT_END
  1
CELLSTYLE_BEGIN
 90
        1
 91
        1
300
_TITLE
309
CELLSTYLE_END
300
CELLSTYLE
  1
TABLEFORMAT_BEGIN
 90
        5
170
     1
 91
        0
 92
        0
 62
   257
 93
        1
300
CONTENTFORMAT
  1
CONTENTFORMAT_BEGIN
 90
        0
 91
        0
 92
        4
 93
        0
300

 40
0.0
140
1.0
 94
        5
 62
     0
340
11
144
0.18
309
CONTENTFORMAT_END
171
     1
301
MARGIN
  1
CELLMARGIN_BEGIN
 40
0.06
 40
0.06
 40
0.06
 40
0.06
 40
0.06
 40
0.06
309
CELLMARGIN_END
 94
        6
 95
        1
302
GRIDFORMAT
  1
GRIDFORMAT_BEGIN
 90
        0
 91
        1
 62
     0
 92
       -2
340
14
 93
        0
 40
0.045
309
GRIDFORMAT_END
 95
        2
302
GRIDFORMAT
  1
GRIDFORMAT_BEGIN
 90
        0
 91
        1
 62
     0
 92
       -2
340
14
 93
        0
 40
0.045
309
GRIDFORMAT_END
 95
        4
302
GRIDFORMAT
  1
GRIDFORMAT_BEGIN
 90
        0
 91
        1
 62
     0
 92
       -2
340
14
 93
        0
 40
0.045
309
GRIDFORMAT_END
 95
        8
302
GRIDFORMAT
  1
GRIDFORMAT_BEGIN
 90
        0
 91
        1
 62
     0
 92
       -2
340
14
 93
        0
 40
0.045
309
GRIDFORMAT_END
 95
       16
302
GRIDFORMAT
  1
GRIDFORMAT_BEGIN
 90
        0
 91
        1
 62
     0
 92
       -2
340
14
 93
        0
 40
0.045
309
GRIDFORMAT_END
 95
       32
302
GRIDFORMAT
  1
GRIDFORMAT_BEGIN
 90
        0
 91
        1
 62
     0
 92
       -2
340
14
 93
        0
 40
0.045
309
GRIDFORMAT_END
309
TABLEFORMAT_END
  1
CELLSTYLE_BEGIN
 90
        2
 91
        1
300
_HEADER
309
CELLSTYLE_END
300
CELLSTYLE
  1
TABLEFORMAT_BEGIN
 90
        5
170
     1
 91
        0
 92
        0
 62
   257
 93
        1
300
CONTENTFORMAT
  1
CONTENTFORMAT_BEGIN
 90
        0
 91
        0
 92
        4
 93
        0
300

 40
0.0
140
1.0
 94
        2
 62
     0
340
11
144
0.18
309
CONTENTFORMAT_END
171
     1
301
MARGIN
  1
CELLMARGIN_BEGIN
 40
0.06
 40
0.06
 40
0.06
 40
0.06
 40
0.06
 40
0.06
309
CELLMARGIN_END
 94
        6
 95
        1
302
GRIDFORMAT
  1
GRIDFORMAT_BEGIN
 90
        0
 91
        1
 62
     0
 92
       -2
340
14
 93
        0
 40
0.045
309
GRIDFORMAT_END
 95
        2
302
GRIDFORMAT
  1
GRIDFORMAT_BEGIN
 90
        0
 91
        1
 62
     0
 92
       -2
340
14
 93
        0
 40
0.045
309
GRIDFORMAT_END
 95
        4
302
GRIDFORMAT
  1
GRIDFORMAT_BEGIN
 90
        0
 91
        1
 62
     0
 92
       -2
340
14
 93
        0
 40
0.045
309
GRIDFORMAT_END
 95
        8
302
GRIDFORMAT
  1
GRIDFORMAT_BEGIN
 90
        0
 91
        1
 62
     0
 92
       -2
340
14
 93
        0
 40
0.045
309
GRIDFORMAT_END
 95
       16
302
GRIDFORMAT
  1
GRIDFORMAT_BEGIN
 90
        0
 91
        1
 62
     0
 92
       -2
340
14
 93
        0
 40
0.045
309
GRIDFORMAT_END
 95
       32
302
GRIDFORMAT
  1
GRIDFORMAT_BEGIN
 90
        0
 91
        1
 62
     0
 92
       -2
340
14
 93
        0
 40
0.045
309
GRIDFORMAT_END
309
TABLEFORMAT_END
  1
CELLSTYLE_BEGIN
 90
        3
 91
        2
300
_DATA
309
CELLSTYLE_END
  0
XRECORD
  5
37B
102
{ACAD_REACTORS
330
37A
102
}
330
37A
100
AcDbXrecord
280
     1
102
RTVSPropertyOp0
 70
     1
102
RTVSPropertyOp1
 70
     1
102
RTVSPropertyOp2
 70
     1
102
RTVSPropertyOp3
 70
     1
102
RTVSPropertyOp4
 70
     1
102
RTVSPropertyOp5
 70
     1
102
RTVSPropertyOp6
 70
     1
102
RTVSPropertyOp7
 70
     1
102
RTVSPropertyOp8
 70
     1
102
RTVSPropertyOp9
 70
     1
102
RTVSPropertyOp10
 70
     1
102
RTVSPropertyOp11
 70
     1
102
RTVSPropertyOp12
 70
     1
102
RTVSPropertyOp13
 70
     1
102
RTVSPropertyOp14
 70
     1
102
RTVSPropertyOp15
 70
     1
102
RTVSPropertyOp16
 70
     1
102
RTVSPropertyOp17
 70
     1
102
RTVSPropertyOp18
 70
     1
102
RTVSPropertyOp19
 70
     1
102
RTVSPropertyOp20
 70
     1
102
RTVSPropertyOp21
 70
     1
102
RTVSPropertyOp22
 70
     1
102
RTVSPropertyOp23
 70
     1
102
RTVSPropertyOp24
 70
     1
102
RTVSPropertyOp25
 70
     1
102
RTVSPropertyOp26
 70
     1
102
RTVSPropertyOp27
 70
     1
102
RTVSPropertyOp28
 70
     1
102
RTVSPropertyOp29
 70
     1
102
RTVSPropertyOp30
 70
     1
102
RTVSPropertyOp31
 70
     1
102
RTVSPropertyOp32
 70
     1
102
RTVSPropertyOp33
 70
     1
102
RTVSPropertyOp34
 70
     1
102
RTVSPropertyOp35
 70
     1
102
RTVSPropertyOp36
 70
     1
102
RTVSPropertyOp37
 70
     1
102
RTVSPropertyOp38
 70
     1
102
RTVSPropertyOp39
 70
     1
102
RTVSPropertyOp40
 70
     1
102
RTVSPropertyOp41
 70
     1
102
RTVSPropertyOp42
 70
     1
102
RTVSPropertyOp43
 70
     1
102
RTVSPropertyOp44
 70
     1
102
RTVSPropertyOp45
 70
     1
102
RTVSPropertyOp46
 70
     1
102
RTVSPropertyOp47
 70
     1
102
RTVSPropertyOp48
 70
     1
102
RTVSPropertyOp49
 70
     1
102
RTVSPropertyOp50
 70
     1
102
RTVSPropertyOp51
 70
     0
102
RTVSPropertyOp52
 70
     0
102
RTVSPropertyOp53
 70
     1
102
RTVSPropertyOp54
 70
     1
102
RTVSPropertyOp55
 70
     1
102
RTVSPropertyOp56
 70
     1
102
RTVSPropertyOp57
 70
     1
102
RTVSPost2010Prop28
280
     1
102
RTVSPost2010PropOp28
 70
     1
102
RTVSPost2010Prop29
280
     1
102
RTVSPost2010PropOp29
 70
     1
102
RTVSPost2010Prop30
280
     0
102
RTVSPost2010PropOp30
 70
     1
102
RTVSPost2010Prop31
280
     0
102
RTVSPost2010PropOp31
 70
     1
102
RTVSPost2010Prop32
280
     0
102
RTVSPost2010PropOp32
 70
     1
102
RTVSPost2010Prop33
280
     0
102
RTVSPost2010PropOp33
 70
     1
102
RTVSPost2010Prop34
280
     0
102
RTVSPost2010PropOp34
 70
     1
102
RTVSPost2010Prop35
280
     0
102
RTVSPost2010PropOp35
 70
     1
102
RTVSPost2010Prop36
280
     0
102
RTVSPost2010PropOp36
 70
     1
102
RTVSPost2010Prop37
 90
       50
102
RTVSPost2010PropOp37
 70
     1
102
RTVSPost2010Prop38
140
0.0
102
RTVSPost2010PropOp38
 70
     1
102
RTVSPost2010Prop39
140
1.0
102
RTVSPost2010PropOp39
 70
     1
102
RTVSPost2010Prop40
 90
        0
102
RTVSPost2010PropOp40
 70
     1
102
RTVSPost2010Prop41ColorIndex
 90
       18
102
RTVSPost2010Prop41ColorRGB
 90
        0
102
RTVSPost2010PropOp41
 70
     1
102
RTVSPost2010Prop42
 90
       50
102
RTVSPost2010PropOp42
 70
     1
102
RTVSPost2010Prop43
 90
        3
102
RTVSPost2010PropOp43
 70
     1
102
RTVSPost2010Prop44ColorIndex
 90
        5
102
RTVSPost2010Prop44ColorRGB
 90
      255
102
RTVSPost2010PropOp44
 70
     1
102
RTVSPost2010Prop45
280
     0
102
RTVSPost2010PropOp45
 70
     1
102
RTVSPost2010Prop46
 90
       50
102
RTVSPost2010PropOp46
 70
     1
102
RTVSPost2010Prop47
 90
       50
102
RTVSPost2010PropOp47
 70
     1
102
RTVSPost2010Prop48
 90
       50
102
RTVSPost2010PropOp48
 70
     1
102
RTVSPost2010Prop49
280
     0
102
RTVSPost2010PropOp49
 70
     1
102
RTVSPost2010Prop50
 90
       50
102
RTVSPost2010PropOp50
 70
     1
102
RTVSPost2010Prop51ColorIndex
 90
      256
102
RTVSPost2010Prop51ColorRGB
 90
-16777216
102
RTVSPost2010PropOp51
 70
     0
102
RTVSPost2010Prop52
140
1.0
102
RTVSPost2010PropOp52
 70
     0
102
RTVSPost2010Prop53
 90
        2
102
RTVSPost2010PropOp53
 70
     1
102
RTVSPost2010Prop54
  1
strokes_ogs.tif
102
RTVSPost2010PropOp54
 70
     1
102
RTVSPost2010Prop55
280
     0
102
RTVSPost2010PropOp55
 70
     1
102
RTVSPost2010Prop56
140
1.0
102
RTVSPost2010PropOp56
 70
     1
102
RTVSPost2010Prop57
140
1.0
102
RTVSPost2010PropOp57
 70
     1
  0
XRECORD
  5
381
102
{ACAD_REACTORS
330
380
102
}
330
380
100
AcDbXrecord
280
     1
102
RTVSPropertyOp0
 70
     1
102
RTVSPropertyOp1
 70
     1
102
RTVSPropertyOp2
 70
     1
102
RTVSPropertyOp3
 70
     1
102
RTVSPropertyOp4
 70
     1
102
RTVSPropertyOp5
 70
     1
102
RTVSPropertyOp6
 70
     1
102
RTVSPropertyOp7
 70
     1
102
RTVSPropertyOp8
 70
     1
102
RTVSPropertyOp9
 70
     1
102
RTVSPropertyOp10
 70
     1
102
RTVSPropertyOp11
 70
     1
102
RTVSPropertyOp12
 70
     1
102
RTVSPropertyOp13
 70
     1
102
RTVSPropertyOp14
 70
     1
102
RTVSPropertyOp15
 70
     1
102
RTVSPropertyOp16
 70
     1
102
RTVSPropertyOp17
 70
     1
102
RTVSPropertyOp18
 70
     1
102
RTVSPropertyOp19
 70
     1
102
RTVSPropertyOp20
 70
     1
102
RTVSPropertyOp21
 70
     1
102
RTVSPropertyOp22
 70
     1
102
RTVSPropertyOp23
 70
     1
102
RTVSPropertyOp24
 70
     1
102
RTVSPropertyOp25
 70
     1
102
RTVSPropertyOp26
 70
     1
102
RTVSPropertyOp27
 70
     1
102
RTVSPropertyOp28
 70
     1
102
RTVSPropertyOp29
 70
     1
102
RTVSPropertyOp30
 70
     1
102
RTVSPropertyOp31
 70
     1
102
RTVSPropertyOp32
 70
     1
102
RTVSPropertyOp33
 70
     1
102
RTVSPropertyOp34
 70
     1
102
RTVSPropertyOp35
 70
     1
102
RTVSPropertyOp36
 70
     1
102
RTVSPropertyOp37
 70
     1
102
RTVSPropertyOp38
 70
     1
102
RTVSPropertyOp39
 70
     1
102
RTVSPropertyOp40
 70
     1
102
RTVSPropertyOp41
 70
     1
102
RTVSPropertyOp42
 70
     1
102
RTVSPropertyOp43
 70
     1
102
RTVSPropertyOp44
 70
     1
102
RTVSPropertyOp45
 70
     1
102
RTVSPropertyOp46
 70
     1
102
RTVSPropertyOp47
 70
     1
102
RTVSPropertyOp48
 70
     1
102
RTVSPropertyOp49
 70
     1
102
RTVSPropertyOp50
 70
     1
102
RTVSPropertyOp51
 70
     0
102
RTVSPropertyOp52
 70
     0
102
RTVSPropertyOp53
 70
     1
102
RTVSPropertyOp54
 70
     1
102
RTVSPropertyOp55
 70
     1
102
RTVSPropertyOp56
 70
     1
102
RTVSPropertyOp57
 70
     1
102
RTVSPost2010Prop28
280
     0
102
RTVSPost2010PropOp28
 70
     1
102
RTVSPost2010Prop29
280
     1
102
RTVSPost2010PropOp29
 70
     1
102
RTVSPost2010Prop30
280
     1
102
RTVSPost2010PropOp30
 70
     1
102
RTVSPost2010Prop31
280
     0
102
RTVSPost2010PropOp31
 70
     1
102
RTVSPost2010Prop32
280
     0
102
RTVSPost2010PropOp32
 70
     1
102
RTVSPost2010Prop33
280
     0
102
RTVSPost2010PropOp33
 70
     1
102
RTVSPost2010Prop34
280
     0
102
RTVSPost2010PropOp34
 70
     1
102
RTVSPost2010Prop35
280
     0
102
RTVSPost2010PropOp35
 70
     1
102
RTVSPost2010Prop36
280
     0
102
RTVSPost2010PropOp36
 70
     1
102
RTVSPost2010Prop37
 90
       50
102
RTVSPost2010PropOp37
 70
     1
102
RTVSPost2010Prop38
140
0.0
102
RTVSPost2010PropOp38
 70
     1
102
RTVSPost2010Prop39
140
1.0
102
RTVSPost2010PropOp39
 70
     1
102
RTVSPost2010Prop40
 90
        0
102
RTVSPost2010PropOp40
 70
     1
102
RTVSPost2010Prop41ColorIndex
 90
       18
102
RTVSPost2010Prop41ColorRGB
 90
        0
102
RTVSPost2010PropOp41
 70
     1
102
RTVSPost2010Prop42
 90
       50
102
RTVSPost2010PropOp42
 70
     1
102
RTVSPost2010Prop43
 90
        3
102
RTVSPost2010PropOp43
 70
     1
102
RTVSPost2010Prop44ColorIndex
 90
        5
102
RTVSPost2010Prop44ColorRGB
 90
      255
102
RTVSPost2010PropOp44
 70
     1
102
RTVSPost2010Prop45
280
     0
102
RTVSPost2010PropOp45
 70
     1
102
RTVSPost2010Prop46
 90
       50
102
RTVSPost2010PropOp46
 70
     1
102
RTVSPost2010Prop47
 90
       50
102
RTVSPost2010PropOp47
 70
     1
102
RTVSPost2010Prop48
 90
       50
102
RTVSPost2010PropOp48
 70
     1
102
RTVSPost2010Prop49
280
     0
102
RTVSPost2010PropOp49
 70
     1
102
RTVSPost2010Prop50
 90
       50
102
RTVSPost2010PropOp50
 70
     1
102
RTVSPost2010Prop51ColorIndex
 90
      256
102
RTVSPost2010Prop51ColorRGB
 90
-16777216
102
RTVSPost2010PropOp51
 70
     0
102
RTVSPost2010Prop52
140
1.0
102
RTVSPost2010PropOp52
 70
     0
102
RTVSPost2010Prop53
 90
        2
102
RTVSPost2010PropOp53
 70
     1
102
RTVSPost2010Prop54
  1
strokes_ogs.tif
102
RTVSPost2010PropOp54
 70
     1
102
RTVSPost2010Prop55
280
     0
102
RTVSPost2010PropOp55
 70
     1
102
RTVSPost2010Prop56
140
1.0
102
RTVSPost2010PropOp56
 70
     1
102
RTVSPost2010Prop57
140
1.0
102
RTVSPost2010PropOp57
 70
     1
  0
XRECORD
  5
389
102
{ACAD_REACTORS
330
388
102
}
330
388
100
AcDbXrecord
280
     1
102
RTVSPropertyOp0
 70
     1
102
RTVSPropertyOp1
 70
     1
102
RTVSPropertyOp2
 70
     1
102
RTVSPropertyOp3
 70
     1
102
RTVSPropertyOp4
 70
     1
102
RTVSPropertyOp5
 70
     1
102
RTVSPropertyOp6
 70
     1
102
RTVSPropertyOp7
 70
     1
102
RTVSPropertyOp8
 70
     1
102
RTVSPropertyOp9
 70
     1
102
RTVSPropertyOp10
 70
     1
102
RTVSPropertyOp11
 70
     1
102
RTVSPropertyOp12
 70
     1
102
RTVSPropertyOp13
 70
     1
102
RTVSPropertyOp14
 70
     1
102
RTVSPropertyOp15
 70
     1
102
RTVSPropertyOp16
 70
     1
102
RTVSPropertyOp17
 70
     1
102
RTVSPropertyOp18
 70
     1
102
RTVSPropertyOp19
 70
     1
102
RTVSPropertyOp20
 70
     1
102
RTVSPropertyOp21
 70
     1
102
RTVSPropertyOp22
 70
     1
102
RTVSPropertyOp23
 70
     1
102
RTVSPropertyOp24
 70
     1
102
RTVSPropertyOp25
 70
     1
102
RTVSPropertyOp26
 70
     1
102
RTVSPropertyOp27
 70
     1
102
RTVSPropertyOp28
 70
     1
102
RTVSPropertyOp29
 70
     1
102
RTVSPropertyOp30
 70
     1
102
RTVSPropertyOp31
 70
     1
102
RTVSPropertyOp32
 70
     1
102
RTVSPropertyOp33
 70
     1
102
RTVSPropertyOp34
 70
     1
102
RTVSPropertyOp35
 70
     1
102
RTVSPropertyOp36
 70
     1
102
RTVSPropertyOp37
 70
     1
102
RTVSPropertyOp38
 70
     1
102
RTVSPropertyOp39
 70
     1
102
RTVSPropertyOp40
 70
     1
102
RTVSPropertyOp41
 70
     1
102
RTVSPropertyOp42
 70
     1
102
RTVSPropertyOp43
 70
     1
102
RTVSPropertyOp44
 70
     1
102
RTVSPropertyOp45
 70
     1
102
RTVSPropertyOp46
 70
     1
102
RTVSPropertyOp47
 70
     1
102
RTVSPropertyOp48
 70
     1
102
RTVSPropertyOp49
 70
     1
102
RTVSPropertyOp50
 70
     1
102
RTVSPropertyOp51
 70
     0
102
RTVSPropertyOp52
 70
     0
102
RTVSPropertyOp53
 70
     1
102
RTVSPropertyOp54
 70
     1
102
RTVSPropertyOp55
 70
     1
102
RTVSPropertyOp56
 70
     1
102
RTVSPropertyOp57
 70
     1
102
RTVSPost2010Prop28
280
     0
102
RTVSPost2010PropOp28
 70
     1
102
RTVSPost2010Prop29
280
     1
102
RTVSPost2010PropOp29
 70
     1
102
RTVSPost2010Prop30
280
     1
102
RTVSPost2010PropOp30
 70
     1
102
RTVSPost2010Prop31
280
     0
102
RTVSPost2010PropOp31
 70
     1
102
RTVSPost2010Prop32
280
     0
102
RTVSPost2010PropOp32
 70
     1
102
RTVSPost2010Prop33
280
     0
102
RTVSPost2010PropOp33
 70
     1
102
RTVSPost2010Prop34
280
     0
102
RTVSPost2010PropOp34
 70
     1
102
RTVSPost2010Prop35
280
     0
102
RTVSPost2010PropOp35
 70
     1
102
RTVSPost2010Prop36
280
     0
102
RTVSPost2010PropOp36
 70
     1
102
RTVSPost2010Prop37
 90
       50
102
RTVSPost2010PropOp37
 70
     1
102
RTVSPost2010Prop38
140
0.0
102
RTVSPost2010PropOp38
 70
     1
102
RTVSPost2010Prop39
140
1.0
102
RTVSPost2010PropOp39
 70
     1
102
RTVSPost2010Prop40
 90
        0
102
RTVSPost2010PropOp40
 70
     1
102
RTVSPost2010Prop41ColorIndex
 90
       18
102
RTVSPost2010Prop41ColorRGB
 90
        0
102
RTVSPost2010PropOp41
 70
     1
102
RTVSPost2010Prop42
 90
       50
102
RTVSPost2010PropOp42
 70
     1
102
RTVSPost2010Prop43
 90
        3
102
RTVSPost2010PropOp43
 70
     1
102
RTVSPost2010Prop44ColorIndex
 90
        5
102
RTVSPost2010Prop44ColorRGB
 90
      255
102
RTVSPost2010PropOp44
 70
     1
102
RTVSPost2010Prop45
280
     0
102
RTVSPost2010PropOp45
 70
     1
102
RTVSPost2010Prop46
 90
       50
102
RTVSPost2010PropOp46
 70
     1
102
RTVSPost2010Prop47
 90
       50
102
RTVSPost2010PropOp47
 70
     1
102
RTVSPost2010Prop48
 90
       50
102
RTVSPost2010PropOp48
 70
     1
102
RTVSPost2010Prop49
280
     0
102
RTVSPost2010PropOp49
 70
     1
102
RTVSPost2010Prop50
 90
       50
102
RTVSPost2010PropOp50
 70
     1
102
RTVSPost2010Prop51ColorIndex
 90
      256
102
RTVSPost2010Prop51ColorRGB
 90
-16777216
102
RTVSPost2010PropOp51
 70
     0
102
RTVSPost2010Prop52
140
1.0
102
RTVSPost2010PropOp52
 70
     0
102
RTVSPost2010Prop53
 90
        2
102
RTVSPost2010PropOp53
 70
     1
102
RTVSPost2010Prop54
  1
strokes_ogs.tif
102
RTVSPost2010PropOp54
 70
     1
102
RTVSPost2010Prop55
280
     0
102
RTVSPost2010PropOp55
 70
     1
102
RTVSPost2010Prop56
140
1.0
102
RTVSPost2010PropOp56
 70
     1
102
RTVSPost2010Prop57
140
1.0
102
RTVSPost2010PropOp57
 70
     1
  0
XRECORD
  5
391
102
{ACAD_REACTORS
330
390
102
}
330
390
100
AcDbXrecord
280
     1
102
RTVSPropertyOp0
 70
     1
102
RTVSPropertyOp1
 70
     1
102
RTVSPropertyOp2
 70
     1
102
RTVSPropertyOp3
 70
     1
102
RTVSPropertyOp4
 70
     1
102
RTVSPropertyOp5
 70
     1
102
RTVSPropertyOp6
 70
     1
102
RTVSPropertyOp7
 70
     1
102
RTVSPropertyOp8
 70
     1
102
RTVSPropertyOp9
 70
     1
102
RTVSPropertyOp10
 70
     1
102
RTVSPropertyOp11
 70
     1
102
RTVSPropertyOp12
 70
     1
102
RTVSPropertyOp13
 70
     1
102
RTVSPropertyOp14
 70
     1
102
RTVSPropertyOp15
 70
     1
102
RTVSPropertyOp16
 70
     1
102
RTVSPropertyOp17
 70
     1
102
RTVSPropertyOp18
 70
     1
102
RTVSPropertyOp19
 70
     1
102
RTVSPropertyOp20
 70
     1
102
RTVSPropertyOp21
 70
     1
102
RTVSPropertyOp22
 70
     1
102
RTVSPropertyOp23
 70
     1
102
RTVSPropertyOp24
 70
     1
102
RTVSPropertyOp25
 70
     1
102
RTVSPropertyOp26
 70
     1
102
RTVSPropertyOp27
 70
     1
102
RTVSPropertyOp28
 70
     1
102
RTVSPropertyOp29
 70
     1
102
RTVSPropertyOp30
 70
     1
102
RTVSPropertyOp31
 70
     1
102
RTVSPropertyOp32
 70
     1
102
RTVSPropertyOp33
 70
     1
102
RTVSPropertyOp34
 70
     1
102
RTVSPropertyOp35
 70
     1
102
RTVSPropertyOp36
 70
     1
102
RTVSPropertyOp37
 70
     1
102
RTVSPropertyOp38
 70
     1
102
RTVSPropertyOp39
 70
     1
102
RTVSPropertyOp40
 70
     1
102
RTVSPropertyOp41
 70
     1
102
RTVSPropertyOp42
 70
     1
102
RTVSPropertyOp43
 70
     1
102
RTVSPropertyOp44
 70
     1
102
RTVSPropertyOp45
 70
     1
102
RTVSPropertyOp46
 70
     1
102
RTVSPropertyOp47
 70
     1
102
RTVSPropertyOp48
 70
     1
102
RTVSPropertyOp49
 70
     1
102
RTVSPropertyOp50
 70
     1
102
RTVSPropertyOp51
 70
     0
102
RTVSPropertyOp52
 70
     0
102
RTVSPropertyOp53
 70
     1
102
RTVSPropertyOp54
 70
     1
102
RTVSPropertyOp55
 70
     1
102
RTVSPropertyOp56
 70
     1
102
RTVSPropertyOp57
 70
     1
102
RTVSPost2010Prop28
280
     0
102
RTVSPost2010PropOp28
 70
     1
102
RTVSPost2010Prop29
280
     1
102
RTVSPost2010PropOp29
 70
     1
102
RTVSPost2010Prop30
280
     1
102
RTVSPost2010PropOp30
 70
     1
102
RTVSPost2010Prop31
280
     0
102
RTVSPost2010PropOp31
 70
     1
102
RTVSPost2010Prop32
280
     0
102
RTVSPost2010PropOp32
 70
     1
102
RTVSPost2010Prop33
280
     0
102
RTVSPost2010PropOp33
 70
     1
102
RTVSPost2010Prop34
280
     0
102
RTVSPost2010PropOp34
 70
     1
102
RTVSPost2010Prop35
280
     0
102
RTVSPost2010PropOp35
 70
     1
102
RTVSPost2010Prop36
280
     0
102
RTVSPost2010PropOp36
 70
     1
102
RTVSPost2010Prop37
 90
       50
102
RTVSPost2010PropOp37
 70
     1
102
RTVSPost2010Prop38
140
0.0
102
RTVSPost2010PropOp38
 70
     1
102
RTVSPost2010Prop39
140
1.0
102
RTVSPost2010PropOp39
 70
     1
102
RTVSPost2010Prop40
 90
        0
102
RTVSPost2010PropOp40
 70
     1
102
RTVSPost2010Prop41ColorIndex
 90
       18
102
RTVSPost2010Prop41ColorRGB
 90
        0
102
RTVSPost2010PropOp41
 70
     1
102
RTVSPost2010Prop42
 90
       50
102
RTVSPost2010PropOp42
 70
     1
102
RTVSPost2010Prop43
 90
        3
102
RTVSPost2010PropOp43
 70
     1
102
RTVSPost2010Prop44ColorIndex
 90
        5
102
RTVSPost2010Prop44ColorRGB
 90
      255
102
RTVSPost2010PropOp44
 70
     1
102
RTVSPost2010Prop45
280
     0
102
RTVSPost2010PropOp45
 70
     1
102
RTVSPost2010Prop46
 90
       50
102
RTVSPost2010PropOp46
 70
     1
102
RTVSPost2010Prop47
 90
       50
102
RTVSPost2010PropOp47
 70
     1
102
RTVSPost2010Prop48
 90
       50
102
RTVSPost2010PropOp48
 70
     1
102
RTVSPost2010Prop49
280
     0
102
RTVSPost2010PropOp49
 70
     1
102
RTVSPost2010Prop50
 90
       50
102
RTVSPost2010PropOp50
 70
     1
102
RTVSPost2010Prop51ColorIndex
 90
      256
102
RTVSPost2010Prop51ColorRGB
 90
-16777216
102
RTVSPost2010PropOp51
 70
     0
102
RTVSPost2010Prop52
140
1.0
102
RTVSPost2010PropOp52
 70
     0
102
RTVSPost2010Prop53
 90
        2
102
RTVSPost2010PropOp53
 70
     1
102
RTVSPost2010Prop54
  1
strokes_ogs.tif
102
RTVSPost2010PropOp54
 70
     1
102
RTVSPost2010Prop55
280
     0
102
RTVSPost2010PropOp55
 70
     1
102
RTVSPost2010Prop56
140
1.0
102
RTVSPost2010PropOp56
 70
     1
102
RTVSPost2010Prop57
140
1.0
102
RTVSPost2010PropOp57
 70
     1
  0
XRECORD
  5
385
102
{ACAD_REACTORS
330
384
102
}
330
384
100
AcDbXrecord
280
     1
102
RTVSPropertyOp0
 70
     1
102
RTVSPropertyOp1
 70
     1
102
RTVSPropertyOp2
 70
     1
102
RTVSPropertyOp3
 70
     1
102
RTVSPropertyOp4
 70
     1
102
RTVSPropertyOp5
 70
     1
102
RTVSPropertyOp6
 70
     1
102
RTVSPropertyOp7
 70
     1
102
RTVSPropertyOp8
 70
     1
102
RTVSPropertyOp9
 70
     1
102
RTVSPropertyOp10
 70
     1
102
RTVSPropertyOp11
 70
     1
102
RTVSPropertyOp12
 70
     1
102
RTVSPropertyOp13
 70
     1
102
RTVSPropertyOp14
 70
     1
102
RTVSPropertyOp15
 70
     1
102
RTVSPropertyOp16
 70
     1
102
RTVSPropertyOp17
 70
     1
102
RTVSPropertyOp18
 70
     1
102
RTVSPropertyOp19
 70
     1
102
RTVSPropertyOp20
 70
     1
102
RTVSPropertyOp21
 70
     1
102
RTVSPropertyOp22
 70
     1
102
RTVSPropertyOp23
 70
     1
102
RTVSPropertyOp24
 70
     1
102
RTVSPropertyOp25
 70
     1
102
RTVSPropertyOp26
 70
     1
102
RTVSPropertyOp27
 70
     1
102
RTVSPropertyOp28
 70
     1
102
RTVSPropertyOp29
 70
     1
102
RTVSPropertyOp30
 70
     1
102
RTVSPropertyOp31
 70
     1
102
RTVSPropertyOp32
 70
     1
102
RTVSPropertyOp33
 70
     1
102
RTVSPropertyOp34
 70
     1
102
RTVSPropertyOp35
 70
     1
102
RTVSPropertyOp36
 70
     1
102
RTVSPropertyOp37
 70
     1
102
RTVSPropertyOp38
 70
     1
102
RTVSPropertyOp39
 70
     1
102
RTVSPropertyOp40
 70
     1
102
RTVSPropertyOp41
 70
     1
102
RTVSPropertyOp42
 70
     1
102
RTVSPropertyOp43
 70
     1
102
RTVSPropertyOp44
 70
     1
102
RTVSPropertyOp45
 70
     1
102
RTVSPropertyOp46
 70
     1
102
RTVSPropertyOp47
 70
     1
102
RTVSPropertyOp48
 70
     1
102
RTVSPropertyOp49
 70
     1
102
RTVSPropertyOp50
 70
     1
102
RTVSPropertyOp51
 70
     0
102
RTVSPropertyOp52
 70
     0
102
RTVSPropertyOp53
 70
     1
102
RTVSPropertyOp54
 70
     1
102
RTVSPropertyOp55
 70
     1
102
RTVSPropertyOp56
 70
     1
102
RTVSPropertyOp57
 70
     1
102
RTVSPost2010Prop28
280
     0
102
RTVSPost2010PropOp28
 70
     1
102
RTVSPost2010Prop29
280
     1
102
RTVSPost2010PropOp29
 70
     1
102
RTVSPost2010Prop30
280
     1
102
RTVSPost2010PropOp30
 70
     1
102
RTVSPost2010Prop31
280
     0
102
RTVSPost2010PropOp31
 70
     1
102
RTVSPost2010Prop32
280
     0
102
RTVSPost2010PropOp32
 70
     1
102
RTVSPost2010Prop33
280
     0
102
RTVSPost2010PropOp33
 70
     1
102
RTVSPost2010Prop34
280
     0
102
RTVSPost2010PropOp34
 70
     1
102
RTVSPost2010Prop35
280
     0
102
RTVSPost2010PropOp35
 70
     1
102
RTVSPost2010Prop36
280
     0
102
RTVSPost2010PropOp36
 70
     1
102
RTVSPost2010Prop37
 90
       50
102
RTVSPost2010PropOp37
 70
     1
102
RTVSPost2010Prop38
140
0.0
102
RTVSPost2010PropOp38
 70
     1
102
RTVSPost2010Prop39
140
1.0
102
RTVSPost2010PropOp39
 70
     1
102
RTVSPost2010Prop40
 90
        0
102
RTVSPost2010PropOp40
 70
     1
102
RTVSPost2010Prop41ColorIndex
 90
       18
102
RTVSPost2010Prop41ColorRGB
 90
        0
102
RTVSPost2010PropOp41
 70
     1
102
RTVSPost2010Prop42
 90
       50
102
RTVSPost2010PropOp42
 70
     1
102
RTVSPost2010Prop43
 90
        3
102
RTVSPost2010PropOp43
 70
     1
102
RTVSPost2010Prop44ColorIndex
 90
        5
102
RTVSPost2010Prop44ColorRGB
 90
      255
102
RTVSPost2010PropOp44
 70
     1
102
RTVSPost2010Prop45
280
     0
102
RTVSPost2010PropOp45
 70
     1
102
RTVSPost2010Prop46
 90
       50
102
RTVSPost2010PropOp46
 70
     1
102
RTVSPost2010Prop47
 90
       50
102
RTVSPost2010PropOp47
 70
     1
102
RTVSPost2010Prop48
 90
       50
102
RTVSPost2010PropOp48
 70
     1
102
RTVSPost2010Prop49
280
     0
102
RTVSPost2010PropOp49
 70
     1
102
RTVSPost2010Prop50
 90
       50
102
RTVSPost2010PropOp50
 70
     1
102
RTVSPost2010Prop51ColorIndex
 90
      256
102
RTVSPost2010Prop51ColorRGB
 90
-16777216
102
RTVSPost2010PropOp51
 70
     0
102
RTVSPost2010Prop52
140
1.0
102
RTVSPost2010PropOp52
 70
     0
102
RTVSPost2010Prop53
 90
        2
102
RTVSPost2010PropOp53
 70
     1
102
RTVSPost2010Prop54
  1
strokes_ogs.tif
102
RTVSPost2010PropOp54
 70
     1
102
RTVSPost2010Prop55
280
     0
102
RTVSPost2010PropOp55
 70
     1
102
RTVSPost2010Prop56
140
1.0
102
RTVSPost2010PropOp56
 70
     1
102
RTVSPost2010Prop57
140
1.0
102
RTVSPost2010PropOp57
 70
     1
  0
XRECORD
  5
387
102
{ACAD_REACTORS
330
386
102
}
330
386
100
AcDbXrecord
280
     1
102
RTVSPropertyOp0
 70
     1
102
RTVSPropertyOp1
 70
     1
102
RTVSPropertyOp2
 70
     1
102
RTVSPropertyOp3
 70
     1
102
RTVSPropertyOp4
 70
     1
102
RTVSPropertyOp5
 70
     1
102
RTVSPropertyOp6
 70
     1
102
RTVSPropertyOp7
 70
     1
102
RTVSPropertyOp8
 70
     1
102
RTVSPropertyOp9
 70
     1
102
RTVSPropertyOp10
 70
     1
102
RTVSPropertyOp11
 70
     1
102
RTVSPropertyOp12
 70
     1
102
RTVSPropertyOp13
 70
     1
102
RTVSPropertyOp14
 70
     1
102
RTVSPropertyOp15
 70
     1
102
RTVSPropertyOp16
 70
     1
102
RTVSPropertyOp17
 70
     1
102
RTVSPropertyOp18
 70
     1
102
RTVSPropertyOp19
 70
     1
102
RTVSPropertyOp20
 70
     1
102
RTVSPropertyOp21
 70
     1
102
RTVSPropertyOp22
 70
     1
102
RTVSPropertyOp23
 70
     1
102
RTVSPropertyOp24
 70
     1
102
RTVSPropertyOp25
 70
     1
102
RTVSPropertyOp26
 70
     1
102
RTVSPropertyOp27
 70
     1
102
RTVSPropertyOp28
 70
     1
102
RTVSPropertyOp29
 70
     1
102
RTVSPropertyOp30
 70
     1
102
RTVSPropertyOp31
 70
     1
102
RTVSPropertyOp32
 70
     1
102
RTVSPropertyOp33
 70
     1
102
RTVSPropertyOp34
 70
     1
102
RTVSPropertyOp35
 70
     1
102
RTVSPropertyOp36
 70
     1
102
RTVSPropertyOp37
 70
     1
102
RTVSPropertyOp38
 70
     1
102
RTVSPropertyOp39
 70
     1
102
RTVSPropertyOp40
 70
     1
102
RTVSPropertyOp41
 70
     1
102
RTVSPropertyOp42
 70
     1
102
RTVSPropertyOp43
 70
     1
102
RTVSPropertyOp44
 70
     1
102
RTVSPropertyOp45
 70
     1
102
RTVSPropertyOp46
 70
     1
102
RTVSPropertyOp47
 70
     1
102
RTVSPropertyOp48
 70
     1
102
RTVSPropertyOp49
 70
     1
102
RTVSPropertyOp50
 70
     1
102
RTVSPropertyOp51
 70
     0
102
RTVSPropertyOp52
 70
     0
102
RTVSPropertyOp53
 70
     1
102
RTVSPropertyOp54
 70
     1
102
RTVSPropertyOp55
 70
     1
102
RTVSPropertyOp56
 70
     1
102
RTVSPropertyOp57
 70
     1
102
RTVSPost2010Prop28
280
     0
102
RTVSPost2010PropOp28
 70
     1
102
RTVSPost2010Prop29
280
     1
102
RTVSPost2010PropOp29
 70
     1
102
RTVSPost2010Prop30
280
     1
102
RTVSPost2010PropOp30
 70
     1
102
RTVSPost2010Prop31
280
     0
102
RTVSPost2010PropOp31
 70
     1
102
RTVSPost2010Prop32
280
     0
102
RTVSPost2010PropOp32
 70
     1
102
RTVSPost2010Prop33
280
     0
102
RTVSPost2010PropOp33
 70
     1
102
RTVSPost2010Prop34
280
     0
102
RTVSPost2010PropOp34
 70
     1
102
RTVSPost2010Prop35
280
     0
102
RTVSPost2010PropOp35
 70
     1
102
RTVSPost2010Prop36
280
     0
102
RTVSPost2010PropOp36
 70
     1
102
RTVSPost2010Prop37
 90
       50
102
RTVSPost2010PropOp37
 70
     1
102
RTVSPost2010Prop38
140
0.0
102
RTVSPost2010PropOp38
 70
     1
102
RTVSPost2010Prop39
140
1.0
102
RTVSPost2010PropOp39
 70
     1
102
RTVSPost2010Prop40
 90
        0
102
RTVSPost2010PropOp40
 70
     1
102
RTVSPost2010Prop41ColorIndex
 90
       18
102
RTVSPost2010Prop41ColorRGB
 90
        0
102
RTVSPost2010PropOp41
 70
     1
102
RTVSPost2010Prop42
 90
       50
102
RTVSPost2010PropOp42
 70
     1
102
RTVSPost2010Prop43
 90
        3
102
RTVSPost2010PropOp43
 70
     1
102
RTVSPost2010Prop44ColorIndex
 90
        5
102
RTVSPost2010Prop44ColorRGB
 90
      255
102
RTVSPost2010PropOp44
 70
     1
102
RTVSPost2010Prop45
280
     0
102
RTVSPost2010PropOp45
 70
     1
102
RTVSPost2010Prop46
 90
       50
102
RTVSPost2010PropOp46
 70
     1
102
RTVSPost2010Prop47
 90
       50
102
RTVSPost2010PropOp47
 70
     1
102
RTVSPost2010Prop48
 90
       50
102
RTVSPost2010PropOp48
 70
     1
102
RTVSPost2010Prop49
280
     0
102
RTVSPost2010PropOp49
 70
     1
102
RTVSPost2010Prop50
 90
       50
102
RTVSPost2010PropOp50
 70
     1
102
RTVSPost2010Prop51ColorIndex
 90
      256
102
RTVSPost2010Prop51ColorRGB
 90
-16777216
102
RTVSPost2010PropOp51
 70
     0
102
RTVSPost2010Prop52
140
1.0
102
RTVSPost2010PropOp52
 70
     0
102
RTVSPost2010Prop53
 90
        2
102
RTVSPost2010PropOp53
 70
     1
102
RTVSPost2010Prop54
  1
strokes_ogs.tif
102
RTVSPost2010PropOp54
 70
     1
102
RTVSPost2010Prop55
280
     0
102
RTVSPost2010PropOp55
 70
     1
102
RTVSPost2010Prop56
140
1.0
102
RTVSPost2010PropOp56
 70
     1
102
RTVSPost2010Prop57
140
1.0
102
RTVSPost2010PropOp57
 70
     1
  0
XRECORD
  5
397
102
{ACAD_REACTORS
330
396
102
}
330
396
100
AcDbXrecord
280
     1
102
RTVSPropertyOp0
 70
     0
102
RTVSPropertyOp1
 70
     0
102
RTVSPropertyOp2
 70
     0
102
RTVSPropertyOp3
 70
     0
102
RTVSPropertyOp4
 70
     0
102
RTVSPropertyOp5
 70
     0
102
RTVSPropertyOp6
 70
     0
102
RTVSPropertyOp7
 70
     0
102
RTVSPropertyOp8
 70
     0
102
RTVSPropertyOp9
 70
     0
102
RTVSPropertyOp10
 70
     0
102
RTVSPropertyOp11
 70
     0
102
RTVSPropertyOp12
 70
     0
102
RTVSPropertyOp13
 70
     0
102
RTVSPropertyOp14
 70
     2
102
RTVSPropertyOp15
 70
     0
102
RTVSPropertyOp16
 70
     0
102
RTVSPropertyOp17
 70
     0
102
RTVSPropertyOp18
 70
     0
102
RTVSPropertyOp19
 70
     0
102
RTVSPropertyOp20
 70
     0
102
RTVSPropertyOp21
 70
     0
102
RTVSPropertyOp22
 70
     0
102
RTVSPropertyOp23
 70
     0
102
RTVSPropertyOp24
 70
     0
102
RTVSPropertyOp25
 70
     0
102
RTVSPropertyOp26
 70
     0
102
RTVSPropertyOp27
 70
     0
102
RTVSPropertyOp28
 70
     0
102
RTVSPropertyOp29
 70
     0
102
RTVSPropertyOp30
 70
     0
102
RTVSPropertyOp31
 70
     0
102
RTVSPropertyOp32
 70
     0
102
RTVSPropertyOp33
 70
     0
102
RTVSPropertyOp34
 70
     0
102
RTVSPropertyOp35
 70
     0
102
RTVSPropertyOp36
 70
     0
102
RTVSPropertyOp37
 70
     0
102
RTVSPropertyOp38
 70
     0
102
RTVSPropertyOp39
 70
     0
102
RTVSPropertyOp40
 70
     0
102
RTVSPropertyOp41
 70
     0
102
RTVSPropertyOp42
 70
     0
102
RTVSPropertyOp43
 70
     0
102
RTVSPropertyOp44
 70
     0
102
RTVSPropertyOp45
 70
     0
102
RTVSPropertyOp46
 70
     0
102
RTVSPropertyOp47
 70
     0
102
RTVSPropertyOp48
 70
     0
102
RTVSPropertyOp49
 70
     0
102
RTVSPropertyOp50
 70
     0
102
RTVSPropertyOp51
 70
     0
102
RTVSPropertyOp52
 70
     0
102
RTVSPropertyOp53
 70
     0
102
RTVSPropertyOp54
 70
     0
102
RTVSPropertyOp55
 70
     0
102
RTVSPropertyOp56
 70
     0
102
RTVSPropertyOp57
 70
     0
102
RTVSPost2010Prop28
280
     0
102
RTVSPost2010PropOp28
 70
     0
102
RTVSPost2010Prop29
280
     1
102
RTVSPost2010PropOp29
 70
     0
102
RTVSPost2010Prop30
280
     1
102
RTVSPost2010PropOp30
 70
     0
102
RTVSPost2010Prop31
280
     0
102
RTVSPost2010PropOp31
 70
     0
102
RTVSPost2010Prop32
280
     0
102
RTVSPost2010PropOp32
 70
     0
102
RTVSPost2010Prop33
280
     0
102
RTVSPost2010PropOp33
 70
     0
102
RTVSPost2010Prop34
280
     0
102
RTVSPost2010PropOp34
 70
     0
102
RTVSPost2010Prop35
280
     0
102
RTVSPost2010PropOp35
 70
     0
102
RTVSPost2010Prop36
280
     0
102
RTVSPost2010PropOp36
 70
     0
102
RTVSPost2010Prop37
 90
       50
102
RTVSPost2010PropOp37
 70
     0
102
RTVSPost2010Prop38
140
0.0
102
RTVSPost2010PropOp38
 70
     0
102
RTVSPost2010Prop39
140
1.0
102
RTVSPost2010PropOp39
 70
     0
102
RTVSPost2010Prop40
 90
        0
102
RTVSPost2010PropOp40
 70
     0
102
RTVSPost2010Prop41ColorIndex
 90
       18
102
RTVSPost2010Prop41ColorRGB
 90
        0
102
RTVSPost2010PropOp41
 70
     0
102
RTVSPost2010Prop42
 90
       50
102
RTVSPost2010PropOp42
 70
     0
102
RTVSPost2010Prop43
 90
        3
102
RTVSPost2010PropOp43
 70
     0
102
RTVSPost2010Prop44ColorIndex
 90
        5
102
RTVSPost2010Prop44ColorRGB
 90
      255
102
RTVSPost2010PropOp44
 70
     0
102
RTVSPost2010Prop45
280
     0
102
RTVSPost2010PropOp45
 70
     0
102
RTVSPost2010Prop46
 90
       50
102
RTVSPost2010PropOp46
 70
     0
102
RTVSPost2010Prop47
 90
       50
102
RTVSPost2010PropOp47
 70
     0
102
RTVSPost2010Prop48
 90
       50
102
RTVSPost2010PropOp48
 70
     0
102
RTVSPost2010Prop49
280
     0
102
RTVSPost2010PropOp49
 70
     0
102
RTVSPost2010Prop50
 90
       50
102
RTVSPost2010PropOp50
 70
     0
102
RTVSPost2010Prop51ColorIndex
 90
      256
102
RTVSPost2010Prop51ColorRGB
 90
-16777216
102
RTVSPost2010PropOp51
 70
     0
102
RTVSPost2010Prop52
140
1.0
102
RTVSPost2010PropOp52
 70
     0
102
RTVSPost2010Prop53
 90
        2
102
RTVSPost2010PropOp53
 70
     0
102
RTVSPost2010Prop54
  1
strokes_ogs.tif
102
RTVSPost2010PropOp54
 70
     0
102
RTVSPost2010Prop55
280
     0
102
RTVSPost2010PropOp55
 70
     0
102
RTVSPost2010Prop56
140
1.0
102
RTVSPost2010PropOp56
 70
     0
102
RTVSPost2010Prop57
140
1.0
102
RTVSPost2010PropOp57
 70
     0
  0
XRECORD
  5
38F
102
{ACAD_REACTORS
330
38E
102
}
330
38E
100
AcDbXrecord
280
     1
102
RTVSPropertyOp0
 70
     1
102
RTVSPropertyOp1
 70
     1
102
RTVSPropertyOp2
 70
     1
102
RTVSPropertyOp3
 70
     1
102
RTVSPropertyOp4
 70
     1
102
RTVSPropertyOp5
 70
     1
102
RTVSPropertyOp6
 70
     1
102
RTVSPropertyOp7
 70
     1
102
RTVSPropertyOp8
 70
     1
102
RTVSPropertyOp9
 70
     1
102
RTVSPropertyOp10
 70
     1
102
RTVSPropertyOp11
 70
     1
102
RTVSPropertyOp12
 70
     1
102
RTVSPropertyOp13
 70
     1
102
RTVSPropertyOp14
 70
     1
102
RTVSPropertyOp15
 70
     1
102
RTVSPropertyOp16
 70
     1
102
RTVSPropertyOp17
 70
     1
102
RTVSPropertyOp18
 70
     1
102
RTVSPropertyOp19
 70
     1
102
RTVSPropertyOp20
 70
     1
102
RTVSPropertyOp21
 70
     1
102
RTVSPropertyOp22
 70
     1
102
RTVSPropertyOp23
 70
     1
102
RTVSPropertyOp24
 70
     1
102
RTVSPropertyOp25
 70
     1
102
RTVSPropertyOp26
 70
     1
102
RTVSPropertyOp27
 70
     1
102
RTVSPropertyOp28
 70
     1
102
RTVSPropertyOp29
 70
     1
102
RTVSPropertyOp30
 70
     1
102
RTVSPropertyOp31
 70
     1
102
RTVSPropertyOp32
 70
     1
102
RTVSPropertyOp33
 70
     1
102
RTVSPropertyOp34
 70
     1
102
RTVSPropertyOp35
 70
     1
102
RTVSPropertyOp36
 70
     1
102
RTVSPropertyOp37
 70
     1
102
RTVSPropertyOp38
 70
     1
102
RTVSPropertyOp39
 70
     1
102
RTVSPropertyOp40
 70
     1
102
RTVSPropertyOp41
 70
     1
102
RTVSPropertyOp42
 70
     1
102
RTVSPropertyOp43
 70
     1
102
RTVSPropertyOp44
 70
     1
102
RTVSPropertyOp45
 70
     1
102
RTVSPropertyOp46
 70
     1
102
RTVSPropertyOp47
 70
     1
102
RTVSPropertyOp48
 70
     1
102
RTVSPropertyOp49
 70
     1
102
RTVSPropertyOp50
 70
     1
102
RTVSPropertyOp51
 70
     0
102
RTVSPropertyOp52
 70
     0
102
RTVSPropertyOp53
 70
     1
102
RTVSPropertyOp54
 70
     1
102
RTVSPropertyOp55
 70
     1
102
RTVSPropertyOp56
 70
     1
102
RTVSPropertyOp57
 70
     1
102
RTVSPost2010Prop28
280
     0
102
RTVSPost2010PropOp28
 70
     1
102
RTVSPost2010Prop29
280
     1
102
RTVSPost2010PropOp29
 70
     1
102
RTVSPost2010Prop30
280
     1
102
RTVSPost2010PropOp30
 70
     1
102
RTVSPost2010Prop31
280
     0
102
RTVSPost2010PropOp31
 70
     1
102
RTVSPost2010Prop32
280
     0
102
RTVSPost2010PropOp32
 70
     1
102
RTVSPost2010Prop33
280
     0
102
RTVSPost2010PropOp33
 70
     1
102
RTVSPost2010Prop34
280
     0
102
RTVSPost2010PropOp34
 70
     1
102
RTVSPost2010Prop35
280
     0
102
RTVSPost2010PropOp35
 70
     1
102
RTVSPost2010Prop36
280
     0
102
RTVSPost2010PropOp36
 70
     1
102
RTVSPost2010Prop37
 90
       50
102
RTVSPost2010PropOp37
 70
     1
102
RTVSPost2010Prop38
140
0.0
102
RTVSPost2010PropOp38
 70
     1
102
RTVSPost2010Prop39
140
1.0
102
RTVSPost2010PropOp39
 70
     1
102
RTVSPost2010Prop40
 90
        0
102
RTVSPost2010PropOp40
 70
     1
102
RTVSPost2010Prop41ColorIndex
 90
       18
102
RTVSPost2010Prop41ColorRGB
 90
        0
102
RTVSPost2010PropOp41
 70
     1
102
RTVSPost2010Prop42
 90
       50
102
RTVSPost2010PropOp42
 70
     1
102
RTVSPost2010Prop43
 90
        3
102
RTVSPost2010PropOp43
 70
     1
102
RTVSPost2010Prop44ColorIndex
 90
        5
102
RTVSPost2010Prop44ColorRGB
 90
      255
102
RTVSPost2010PropOp44
 70
     1
102
RTVSPost2010Prop45
280
     0
102
RTVSPost2010PropOp45
 70
     1
102
RTVSPost2010Prop46
 90
       50
102
RTVSPost2010PropOp46
 70
     1
102
RTVSPost2010Prop47
 90
       50
102
RTVSPost2010PropOp47
 70
     1
102
RTVSPost2010Prop48
 90
       50
102
RTVSPost2010PropOp48
 70
     1
102
RTVSPost2010Prop49
280
     0
102
RTVSPost2010PropOp49
 70
     1
102
RTVSPost2010Prop50
 90
       50
102
RTVSPost2010PropOp50
 70
     1
102
RTVSPost2010Prop51ColorIndex
 90
      256
102
RTVSPost2010Prop51ColorRGB
 90
-16777216
102
RTVSPost2010PropOp51
 70
     0
102
RTVSPost2010Prop52
140
1.0
102
RTVSPost2010PropOp52
 70
     0
102
RTVSPost2010Prop53
 90
        2
102
RTVSPost2010PropOp53
 70
     1
102
RTVSPost2010Prop54
  1
strokes_ogs.tif
102
RTVSPost2010PropOp54
 70
     1
102
RTVSPost2010Prop55
280
     0
102
RTVSPost2010PropOp55
 70
     1
102
RTVSPost2010Prop56
140
1.0
102
RTVSPost2010PropOp56
 70
     1
102
RTVSPost2010Prop57
140
1.0
102
RTVSPost2010PropOp57
 70
     1
  0
XRECORD
  5
373
102
{ACAD_REACTORS
330
372
102
}
330
372
100
AcDbXrecord
280
     1
102
RTVSPropertyOp0
 70
     1
102
RTVSPropertyOp1
 70
     1
102
RTVSPropertyOp2
 70
     1
102
RTVSPropertyOp3
 70
     1
102
RTVSPropertyOp4
 70
     1
102
RTVSPropertyOp5
 70
     1
102
RTVSPropertyOp6
 70
     1
102
RTVSPropertyOp7
 70
     1
102
RTVSPropertyOp8
 70
     1
102
RTVSPropertyOp9
 70
     1
102
RTVSPropertyOp10
 70
     1
102
RTVSPropertyOp11
 70
     1
102
RTVSPropertyOp12
 70
     1
102
RTVSPropertyOp13
 70
     1
102
RTVSPropertyOp14
 70
     1
102
RTVSPropertyOp15
 70
     1
102
RTVSPropertyOp16
 70
     1
102
RTVSPropertyOp17
 70
     1
102
RTVSPropertyOp18
 70
     1
102
RTVSPropertyOp19
 70
     1
102
RTVSPropertyOp20
 70
     1
102
RTVSPropertyOp21
 70
     1
102
RTVSPropertyOp22
 70
     1
102
RTVSPropertyOp23
 70
     1
102
RTVSPropertyOp24
 70
     1
102
RTVSPropertyOp25
 70
     1
102
RTVSPropertyOp26
 70
     1
102
RTVSPropertyOp27
 70
     1
102
RTVSPropertyOp28
 70
     1
102
RTVSPropertyOp29
 70
     1
102
RTVSPropertyOp30
 70
     1
102
RTVSPropertyOp31
 70
     1
102
RTVSPropertyOp32
 70
     1
102
RTVSPropertyOp33
 70
     1
102
RTVSPropertyOp34
 70
     1
102
RTVSPropertyOp35
 70
     1
102
RTVSPropertyOp36
 70
     1
102
RTVSPropertyOp37
 70
     1
102
RTVSPropertyOp38
 70
     1
102
RTVSPropertyOp39
 70
     1
102
RTVSPropertyOp40
 70
     1
102
RTVSPropertyOp41
 70
     1
102
RTVSPropertyOp42
 70
     1
102
RTVSPropertyOp43
 70
     1
102
RTVSPropertyOp44
 70
     1
102
RTVSPropertyOp45
 70
     1
102
RTVSPropertyOp46
 70
     1
102
RTVSPropertyOp47
 70
     1
102
RTVSPropertyOp48
 70
     1
102
RTVSPropertyOp49
 70
     1
102
RTVSPropertyOp50
 70
     1
102
RTVSPropertyOp51
 70
     0
102
RTVSPropertyOp52
 70
     0
102
RTVSPropertyOp53
 70
     1
102
RTVSPropertyOp54
 70
     1
102
RTVSPropertyOp55
 70
     1
102
RTVSPropertyOp56
 70
     1
102
RTVSPropertyOp57
 70
     1
102
RTVSPost2010Prop28
280
     0
102
RTVSPost2010PropOp28
 70
     1
102
RTVSPost2010Prop29
280
     1
102
RTVSPost2010PropOp29
 70
     1
102
RTVSPost2010Prop30
280
     1
102
RTVSPost2010PropOp30
 70
     1
102
RTVSPost2010Prop31
280
     0
102
RTVSPost2010PropOp31
 70
     1
102
RTVSPost2010Prop32
280
     0
102
RTVSPost2010PropOp32
 70
     1
102
RTVSPost2010Prop33
280
     0
102
RTVSPost2010PropOp33
 70
     1
102
RTVSPost2010Prop34
280
     0
102
RTVSPost2010PropOp34
 70
     1
102
RTVSPost2010Prop35
280
     0
102
RTVSPost2010PropOp35
 70
     1
102
RTVSPost2010Prop36
280
     0
102
RTVSPost2010PropOp36
 70
     1
102
RTVSPost2010Prop37
 90
       50
102
RTVSPost2010PropOp37
 70
     1
102
RTVSPost2010Prop38
140
0.0
102
RTVSPost2010PropOp38
 70
     1
102
RTVSPost2010Prop39
140
1.0
102
RTVSPost2010PropOp39
 70
     1
102
RTVSPost2010Prop40
 90
        0
102
RTVSPost2010PropOp40
 70
     1
102
RTVSPost2010Prop41ColorIndex
 90
       18
102
RTVSPost2010Prop41ColorRGB
 90
        0
102
RTVSPost2010PropOp41
 70
     1
102
RTVSPost2010Prop42
 90
       50
102
RTVSPost2010PropOp42
 70
     1
102
RTVSPost2010Prop43
 90
        3
102
RTVSPost2010PropOp43
 70
     1
102
RTVSPost2010Prop44ColorIndex
 90
        5
102
RTVSPost2010Prop44ColorRGB
 90
      255
102
RTVSPost2010PropOp44
 70
     1
102
RTVSPost2010Prop45
280
     0
102
RTVSPost2010PropOp45
 70
     1
102
RTVSPost2010Prop46
 90
       50
102
RTVSPost2010PropOp46
 70
     1
102
RTVSPost2010Prop47
 90
       50
102
RTVSPost2010PropOp47
 70
     1
102
RTVSPost2010Prop48
 90
       50
102
RTVSPost2010PropOp48
 70
     1
102
RTVSPost2010Prop49
280
     0
102
RTVSPost2010PropOp49
 70
     1
102
RTVSPost2010Prop50
 90
       50
102
RTVSPost2010PropOp50
 70
     1
102
RTVSPost2010Prop51ColorIndex
 90
      256
102
RTVSPost2010Prop51ColorRGB
 90
-16777216
102
RTVSPost2010PropOp51
 70
     0
102
RTVSPost2010Prop52
140
1.0
102
RTVSPost2010PropOp52
 70
     0
102
RTVSPost2010Prop53
 90
        2
102
RTVSPost2010PropOp53
 70
     1
102
RTVSPost2010Prop54
  1
strokes_ogs.tif
102
RTVSPost2010PropOp54
 70
     1
102
RTVSPost2010Prop55
280
     0
102
RTVSPost2010PropOp55
 70
     1
102
RTVSPost2010Prop56
140
1.0
102
RTVSPost2010PropOp56
 70
     1
102
RTVSPost2010Prop57
140
1.0
102
RTVSPost2010PropOp57
 70
     1
  0
XRECORD
  5
375
102
{ACAD_REACTORS
330
374
102
}
330
374
100
AcDbXrecord
280
     1
102
RTVSPropertyOp0
 70
     1
102
RTVSPropertyOp1
 70
     1
102
RTVSPropertyOp2
 70
     1
102
RTVSPropertyOp3
 70
     1
102
RTVSPropertyOp4
 70
     1
102
RTVSPropertyOp5
 70
     1
102
RTVSPropertyOp6
 70
     1
102
RTVSPropertyOp7
 70
     1
102
RTVSPropertyOp8
 70
     1
102
RTVSPropertyOp9
 70
     1
102
RTVSPropertyOp10
 70
     1
102
RTVSPropertyOp11
 70
     1
102
RTVSPropertyOp12
 70
     1
102
RTVSPropertyOp13
 70
     1
102
RTVSPropertyOp14
 70
     1
102
RTVSPropertyOp15
 70
     1
102
RTVSPropertyOp16
 70
     1
102
RTVSPropertyOp17
 70
     1
102
RTVSPropertyOp18
 70
     1
102
RTVSPropertyOp19
 70
     1
102
RTVSPropertyOp20
 70
     1
102
RTVSPropertyOp21
 70
     1
102
RTVSPropertyOp22
 70
     1
102
RTVSPropertyOp23
 70
     1
102
RTVSPropertyOp24
 70
     1
102
RTVSPropertyOp25
 70
     1
102
RTVSPropertyOp26
 70
     1
102
RTVSPropertyOp27
 70
     1
102
RTVSPropertyOp28
 70
     1
102
RTVSPropertyOp29
 70
     1
102
RTVSPropertyOp30
 70
     1
102
RTVSPropertyOp31
 70
     1
102
RTVSPropertyOp32
 70
     1
102
RTVSPropertyOp33
 70
     1
102
RTVSPropertyOp34
 70
     1
102
RTVSPropertyOp35
 70
     1
102
RTVSPropertyOp36
 70
     1
102
RTVSPropertyOp37
 70
     1
102
RTVSPropertyOp38
 70
     1
102
RTVSPropertyOp39
 70
     1
102
RTVSPropertyOp40
 70
     1
102
RTVSPropertyOp41
 70
     1
102
RTVSPropertyOp42
 70
     1
102
RTVSPropertyOp43
 70
     1
102
RTVSPropertyOp44
 70
     1
102
RTVSPropertyOp45
 70
     1
102
RTVSPropertyOp46
 70
     1
102
RTVSPropertyOp47
 70
     1
102
RTVSPropertyOp48
 70
     1
102
RTVSPropertyOp49
 70
     1
102
RTVSPropertyOp50
 70
     1
102
RTVSPropertyOp51
 70
     0
102
RTVSPropertyOp52
 70
     0
102
RTVSPropertyOp53
 70
     1
102
RTVSPropertyOp54
 70
     1
102
RTVSPropertyOp55
 70
     1
102
RTVSPropertyOp56
 70
     1
102
RTVSPropertyOp57
 70
     1
102
RTVSPost2010Prop28
280
     0
102
RTVSPost2010PropOp28
 70
     1
102
RTVSPost2010Prop29
280
     1
102
RTVSPost2010PropOp29
 70
     1
102
RTVSPost2010Prop30
280
     1
102
RTVSPost2010PropOp30
 70
     1
102
RTVSPost2010Prop31
280
     0
102
RTVSPost2010PropOp31
 70
     1
102
RTVSPost2010Prop32
280
     0
102
RTVSPost2010PropOp32
 70
     1
102
RTVSPost2010Prop33
280
     0
102
RTVSPost2010PropOp33
 70
     1
102
RTVSPost2010Prop34
280
     0
102
RTVSPost2010PropOp34
 70
     1
102
RTVSPost2010Prop35
280
     0
102
RTVSPost2010PropOp35
 70
     1
102
RTVSPost2010Prop36
280
     0
102
RTVSPost2010PropOp36
 70
     1
102
RTVSPost2010Prop37
 90
       50
102
RTVSPost2010PropOp37
 70
     1
102
RTVSPost2010Prop38
140
0.0
102
RTVSPost2010PropOp38
 70
     1
102
RTVSPost2010Prop39
140
1.0
102
RTVSPost2010PropOp39
 70
     1
102
RTVSPost2010Prop40
 90
        0
102
RTVSPost2010PropOp40
 70
     1
102
RTVSPost2010Prop41ColorIndex
 90
       18
102
RTVSPost2010Prop41ColorRGB
 90
        0
102
RTVSPost2010PropOp41
 70
     1
102
RTVSPost2010Prop42
 90
       50
102
RTVSPost2010PropOp42
 70
     1
102
RTVSPost2010Prop43
 90
        3
102
RTVSPost2010PropOp43
 70
     1
102
RTVSPost2010Prop44ColorIndex
 90
        5
102
RTVSPost2010Prop44ColorRGB
 90
      255
102
RTVSPost2010PropOp44
 70
     1
102
RTVSPost2010Prop45
280
     0
102
RTVSPost2010PropOp45
 70
     1
102
RTVSPost2010Prop46
 90
       50
102
RTVSPost2010PropOp46
 70
     1
102
RTVSPost2010Prop47
 90
       50
102
RTVSPost2010PropOp47
 70
     1
102
RTVSPost2010Prop48
 90
       50
102
RTVSPost2010PropOp48
 70
     1
102
RTVSPost2010Prop49
280
     0
102
RTVSPost2010PropOp49
 70
     1
102
RTVSPost2010Prop50
 90
       50
102
RTVSPost2010PropOp50
 70
     1
102
RTVSPost2010Prop51ColorIndex
 90
      256
102
RTVSPost2010Prop51ColorRGB
 90
-16777216
102
RTVSPost2010PropOp51
 70
     0
102
RTVSPost2010Prop52
140
1.0
102
RTVSPost2010PropOp52
 70
     0
102
RTVSPost2010Prop53
 90
        2
102
RTVSPost2010PropOp53
 70
     1
102
RTVSPost2010Prop54
  1
strokes_ogs.tif
102
RTVSPost2010PropOp54
 70
     1
102
RTVSPost2010Prop55
280
     0
102
RTVSPost2010PropOp55
 70
     1
102
RTVSPost2010Prop56
140
1.0
102
RTVSPost2010PropOp56
 70
     1
102
RTVSPost2010Prop57
140
1.0
102
RTVSPost2010PropOp57
 70
     1
  0
XRECORD
  5
377
102
{ACAD_REACTORS
330
376
102
}
330
376
100
AcDbXrecord
280
     1
102
RTVSPropertyOp0
 70
     1
102
RTVSPropertyOp1
 70
     1
102
RTVSPropertyOp2
 70
     1
102
RTVSPropertyOp3
 70
     1
102
RTVSPropertyOp4
 70
     1
102
RTVSPropertyOp5
 70
     1
102
RTVSPropertyOp6
 70
     1
102
RTVSPropertyOp7
 70
     1
102
RTVSPropertyOp8
 70
     1
102
RTVSPropertyOp9
 70
     1
102
RTVSPropertyOp10
 70
     1
102
RTVSPropertyOp11
 70
     1
102
RTVSPropertyOp12
 70
     1
102
RTVSPropertyOp13
 70
     1
102
RTVSPropertyOp14
 70
     1
102
RTVSPropertyOp15
 70
     1
102
RTVSPropertyOp16
 70
     1
102
RTVSPropertyOp17
 70
     1
102
RTVSPropertyOp18
 70
     1
102
RTVSPropertyOp19
 70
     1
102
RTVSPropertyOp20
 70
     1
102
RTVSPropertyOp21
 70
     1
102
RTVSPropertyOp22
 70
     1
102
RTVSPropertyOp23
 70
     1
102
RTVSPropertyOp24
 70
     1
102
RTVSPropertyOp25
 70
     1
102
RTVSPropertyOp26
 70
     1
102
RTVSPropertyOp27
 70
     1
102
RTVSPropertyOp28
 70
     1
102
RTVSPropertyOp29
 70
     1
102
RTVSPropertyOp30
 70
     1
102
RTVSPropertyOp31
 70
     1
102
RTVSPropertyOp32
 70
     1
102
RTVSPropertyOp33
 70
     1
102
RTVSPropertyOp34
 70
     1
102
RTVSPropertyOp35
 70
     1
102
RTVSPropertyOp36
 70
     1
102
RTVSPropertyOp37
 70
     1
102
RTVSPropertyOp38
 70
     1
102
RTVSPropertyOp39
 70
     1
102
RTVSPropertyOp40
 70
     1
102
RTVSPropertyOp41
 70
     1
102
RTVSPropertyOp42
 70
     1
102
RTVSPropertyOp43
 70
     1
102
RTVSPropertyOp44
 70
     1
102
RTVSPropertyOp45
 70
     1
102
RTVSPropertyOp46
 70
     1
102
RTVSPropertyOp47
 70
     1
102
RTVSPropertyOp48
 70
     1
102
RTVSPropertyOp49
 70
     1
102
RTVSPropertyOp50
 70
     1
102
RTVSPropertyOp51
 70
     0
102
RTVSPropertyOp52
 70
     0
102
RTVSPropertyOp53
 70
     1
102
RTVSPropertyOp54
 70
     1
102
RTVSPropertyOp55
 70
     1
102
RTVSPropertyOp56
 70
     1
102
RTVSPropertyOp57
 70
     1
102
RTVSPost2010Prop28
280
     0
102
RTVSPost2010PropOp28
 70
     1
102
RTVSPost2010Prop29
280
     1
102
RTVSPost2010PropOp29
 70
     1
102
RTVSPost2010Prop30
280
     1
102
RTVSPost2010PropOp30
 70
     1
102
RTVSPost2010Prop31
280
     0
102
RTVSPost2010PropOp31
 70
     1
102
RTVSPost2010Prop32
280
     0
102
RTVSPost2010PropOp32
 70
     1
102
RTVSPost2010Prop33
280
     0
102
RTVSPost2010PropOp33
 70
     1
102
RTVSPost2010Prop34
280
     0
102
RTVSPost2010PropOp34
 70
     1
102
RTVSPost2010Prop35
280
     0
102
RTVSPost2010PropOp35
 70
     1
102
RTVSPost2010Prop36
280
     0
102
RTVSPost2010PropOp36
 70
     1
102
RTVSPost2010Prop37
 90
       50
102
RTVSPost2010PropOp37
 70
     1
102
RTVSPost2010Prop38
140
0.0
102
RTVSPost2010PropOp38
 70
     1
102
RTVSPost2010Prop39
140
1.0
102
RTVSPost2010PropOp39
 70
     1
102
RTVSPost2010Prop40
 90
        0
102
RTVSPost2010PropOp40
 70
     1
102
RTVSPost2010Prop41ColorIndex
 90
       18
102
RTVSPost2010Prop41ColorRGB
 90
        0
102
RTVSPost2010PropOp41
 70
     1
102
RTVSPost2010Prop42
 90
       50
102
RTVSPost2010PropOp42
 70
     1
102
RTVSPost2010Prop43
 90
        3
102
RTVSPost2010PropOp43
 70
     1
102
RTVSPost2010Prop44ColorIndex
 90
        5
102
RTVSPost2010Prop44ColorRGB
 90
      255
102
RTVSPost2010PropOp44
 70
     1
102
RTVSPost2010Prop45
280
     0
102
RTVSPost2010PropOp45
 70
     1
102
RTVSPost2010Prop46
 90
       50
102
RTVSPost2010PropOp46
 70
     1
102
RTVSPost2010Prop47
 90
       50
102
RTVSPost2010PropOp47
 70
     1
102
RTVSPost2010Prop48
 90
       50
102
RTVSPost2010PropOp48
 70
     1
102
RTVSPost2010Prop49
280
     0
102
RTVSPost2010PropOp49
 70
     1
102
RTVSPost2010Prop50
 90
       50
102
RTVSPost2010PropOp50
 70
     1
102
RTVSPost2010Prop51ColorIndex
 90
      256
102
RTVSPost2010Prop51ColorRGB
 90
-16777216
102
RTVSPost2010PropOp51
 70
     0
102
RTVSPost2010Prop52
140
1.0
102
RTVSPost2010PropOp52
 70
     0
102
RTVSPost2010Prop53
 90
        2
102
RTVSPost2010PropOp53
 70
     1
102
RTVSPost2010Prop54
  1
strokes_ogs.tif
102
RTVSPost2010PropOp54
 70
     1
102
RTVSPost2010Prop55
280
     0
102
RTVSPost2010PropOp55
 70
     1
102
RTVSPost2010Prop56
140
1.0
102
RTVSPost2010PropOp56
 70
     1
102
RTVSPost2010Prop57
140
1.0
102
RTVSPost2010PropOp57
 70
     1
  0
XRECORD
  5
379
102
{ACAD_REACTORS
330
378
102
}
330
378
100
AcDbXrecord
280
     1
102
RTVSPropertyOp0
 70
     1
102
RTVSPropertyOp1
 70
     1
102
RTVSPropertyOp2
 70
     1
102
RTVSPropertyOp3
 70
     1
102
RTVSPropertyOp4
 70
     1
102
RTVSPropertyOp5
 70
     1
102
RTVSPropertyOp6
 70
     1
102
RTVSPropertyOp7
 70
     1
102
RTVSPropertyOp8
 70
     1
102
RTVSPropertyOp9
 70
     1
102
RTVSPropertyOp10
 70
     1
102
RTVSPropertyOp11
 70
     1
102
RTVSPropertyOp12
 70
     1
102
RTVSPropertyOp13
 70
     1
102
RTVSPropertyOp14
 70
     1
102
RTVSPropertyOp15
 70
     1
102
RTVSPropertyOp16
 70
     1
102
RTVSPropertyOp17
 70
     1
102
RTVSPropertyOp18
 70
     1
102
RTVSPropertyOp19
 70
     1
102
RTVSPropertyOp20
 70
     1
102
RTVSPropertyOp21
 70
     1
102
RTVSPropertyOp22
 70
     1
102
RTVSPropertyOp23
 70
     1
102
RTVSPropertyOp24
 70
     1
102
RTVSPropertyOp25
 70
     1
102
RTVSPropertyOp26
 70
     1
102
RTVSPropertyOp27
 70
     1
102
RTVSPropertyOp28
 70
     1
102
RTVSPropertyOp29
 70
     1
102
RTVSPropertyOp30
 70
     1
102
RTVSPropertyOp31
 70
     1
102
RTVSPropertyOp32
 70
     1
102
RTVSPropertyOp33
 70
     1
102
RTVSPropertyOp34
 70
     1
102
RTVSPropertyOp35
 70
     1
102
RTVSPropertyOp36
 70
     1
102
RTVSPropertyOp37
 70
     1
102
RTVSPropertyOp38
 70
     1
102
RTVSPropertyOp39
 70
     1
102
RTVSPropertyOp40
 70
     1
102
RTVSPropertyOp41
 70
     1
102
RTVSPropertyOp42
 70
     1
102
RTVSPropertyOp43
 70
     1
102
RTVSPropertyOp44
 70
     1
102
RTVSPropertyOp45
 70
     1
102
RTVSPropertyOp46
 70
     1
102
RTVSPropertyOp47
 70
     1
102
RTVSPropertyOp48
 70
     1
102
RTVSPropertyOp49
 70
     1
102
RTVSPropertyOp50
 70
     1
102
RTVSPropertyOp51
 70
     0
102
RTVSPropertyOp52
 70
     0
102
RTVSPropertyOp53
 70
     1
102
RTVSPropertyOp54
 70
     1
102
RTVSPropertyOp55
 70
     1
102
RTVSPropertyOp56
 70
     1
102
RTVSPropertyOp57
 70
     1
102
RTVSPost2010Prop28
280
     0
102
RTVSPost2010PropOp28
 70
     1
102
RTVSPost2010Prop29
280
     1
102
RTVSPost2010PropOp29
 70
     1
102
RTVSPost2010Prop30
280
     1
102
RTVSPost2010PropOp30
 70
     1
102
RTVSPost2010Prop31
280
     0
102
RTVSPost2010PropOp31
 70
     1
102
RTVSPost2010Prop32
280
     0
102
RTVSPost2010PropOp32
 70
     1
102
RTVSPost2010Prop33
280
     0
102
RTVSPost2010PropOp33
 70
     1
102
RTVSPost2010Prop34
280
     0
102
RTVSPost2010PropOp34
 70
     1
102
RTVSPost2010Prop35
280
     0
102
RTVSPost2010PropOp35
 70
     1
102
RTVSPost2010Prop36
280
     0
102
RTVSPost2010PropOp36
 70
     1
102
RTVSPost2010Prop37
 90
       50
102
RTVSPost2010PropOp37
 70
     1
102
RTVSPost2010Prop38
140
0.0
102
RTVSPost2010PropOp38
 70
     1
102
RTVSPost2010Prop39
140
1.0
102
RTVSPost2010PropOp39
 70
     1
102
RTVSPost2010Prop40
 90
        0
102
RTVSPost2010PropOp40
 70
     1
102
RTVSPost2010Prop41ColorIndex
 90
       18
102
RTVSPost2010Prop41ColorRGB
 90
        0
102
RTVSPost2010PropOp41
 70
     1
102
RTVSPost2010Prop42
 90
       50
102
RTVSPost2010PropOp42
 70
     1
102
RTVSPost2010Prop43
 90
        3
102
RTVSPost2010PropOp43
 70
     1
102
RTVSPost2010Prop44ColorIndex
 90
        5
102
RTVSPost2010Prop44ColorRGB
 90
      255
102
RTVSPost2010PropOp44
 70
     1
102
RTVSPost2010Prop45
280
     0
102
RTVSPost2010PropOp45
 70
     1
102
RTVSPost2010Prop46
 90
       50
102
RTVSPost2010PropOp46
 70
     1
102
RTVSPost2010Prop47
 90
       50
102
RTVSPost2010PropOp47
 70
     1
102
RTVSPost2010Prop48
 90
       50
102
RTVSPost2010PropOp48
 70
     1
102
RTVSPost2010Prop49
280
     0
102
RTVSPost2010PropOp49
 70
     1
102
RTVSPost2010Prop50
 90
       50
102
RTVSPost2010PropOp50
 70
     1
102
RTVSPost2010Prop51ColorIndex
 90
      256
102
RTVSPost2010Prop51ColorRGB
 90
-16777216
102
RTVSPost2010PropOp51
 70
     0
102
RTVSPost2010Prop52
140
1.0
102
RTVSPost2010PropOp52
 70
     0
102
RTVSPost2010Prop53
 90
        2
102
RTVSPost2010PropOp53
 70
     1
102
RTVSPost2010Prop54
  1
strokes_ogs.tif
102
RTVSPost2010PropOp54
 70
     1
102
RTVSPost2010Prop55
280
     0
102
RTVSPost2010PropOp55
 70
     1
102
RTVSPost2010Prop56
140
1.0
102
RTVSPost2010PropOp56
 70
     1
102
RTVSPost2010Prop57
140
1.0
102
RTVSPost2010PropOp57
 70
     1
  0
XRECORD
  5
37F
102
{ACAD_REACTORS
330
37E
102
}
330
37E
100
AcDbXrecord
280
     1
102
RTVSPropertyOp0
 70
     1
102
RTVSPropertyOp1
 70
     1
102
RTVSPropertyOp2
 70
     1
102
RTVSPropertyOp3
 70
     1
102
RTVSPropertyOp4
 70
     1
102
RTVSPropertyOp5
 70
     1
102
RTVSPropertyOp6
 70
     1
102
RTVSPropertyOp7
 70
     1
102
RTVSPropertyOp8
 70
     1
102
RTVSPropertyOp9
 70
     1
102
RTVSPropertyOp10
 70
     1
102
RTVSPropertyOp11
 70
     1
102
RTVSPropertyOp12
 70
     1
102
RTVSPropertyOp13
 70
     1
102
RTVSPropertyOp14
 70
     1
102
RTVSPropertyOp15
 70
     1
102
RTVSPropertyOp16
 70
     1
102
RTVSPropertyOp17
 70
     1
102
RTVSPropertyOp18
 70
     1
102
RTVSPropertyOp19
 70
     1
102
RTVSPropertyOp20
 70
     1
102
RTVSPropertyOp21
 70
     1
102
RTVSPropertyOp22
 70
     1
102
RTVSPropertyOp23
 70
     1
102
RTVSPropertyOp24
 70
     1
102
RTVSPropertyOp25
 70
     1
102
RTVSPropertyOp26
 70
     1
102
RTVSPropertyOp27
 70
     1
102
RTVSPropertyOp28
 70
     1
102
RTVSPropertyOp29
 70
     1
102
RTVSPropertyOp30
 70
     1
102
RTVSPropertyOp31
 70
     1
102
RTVSPropertyOp32
 70
     1
102
RTVSPropertyOp33
 70
     1
102
RTVSPropertyOp34
 70
     1
102
RTVSPropertyOp35
 70
     1
102
RTVSPropertyOp36
 70
     1
102
RTVSPropertyOp37
 70
     1
102
RTVSPropertyOp38
 70
     1
102
RTVSPropertyOp39
 70
     1
102
RTVSPropertyOp40
 70
     1
102
RTVSPropertyOp41
 70
     1
102
RTVSPropertyOp42
 70
     1
102
RTVSPropertyOp43
 70
     1
102
RTVSPropertyOp44
 70
     1
102
RTVSPropertyOp45
 70
     1
102
RTVSPropertyOp46
 70
     1
102
RTVSPropertyOp47
 70
     1
102
RTVSPropertyOp48
 70
     1
102
RTVSPropertyOp49
 70
     1
102
RTVSPropertyOp50
 70
     1
102
RTVSPropertyOp51
 70
     0
102
RTVSPropertyOp52
 70
     0
102
RTVSPropertyOp53
 70
     1
102
RTVSPropertyOp54
 70
     1
102
RTVSPropertyOp55
 70
     1
102
RTVSPropertyOp56
 70
     1
102
RTVSPropertyOp57
 70
     1
102
RTVSPost2010Prop28
280
     0
102
RTVSPost2010PropOp28
 70
     1
102
RTVSPost2010Prop29
280
     1
102
RTVSPost2010PropOp29
 70
     1
102
RTVSPost2010Prop30
280
     1
102
RTVSPost2010PropOp30
 70
     1
102
RTVSPost2010Prop31
280
     0
102
RTVSPost2010PropOp31
 70
     1
102
RTVSPost2010Prop32
280
     0
102
RTVSPost2010PropOp32
 70
     1
102
RTVSPost2010Prop33
280
     0
102
RTVSPost2010PropOp33
 70
     1
102
RTVSPost2010Prop34
280
     0
102
RTVSPost2010PropOp34
 70
     1
102
RTVSPost2010Prop35
280
     0
102
RTVSPost2010PropOp35
 70
     1
102
RTVSPost2010Prop36
280
     0
102
RTVSPost2010PropOp36
 70
     1
102
RTVSPost2010Prop37
 90
       50
102
RTVSPost2010PropOp37
 70
     1
102
RTVSPost2010Prop38
140
0.0
102
RTVSPost2010PropOp38
 70
     1
102
RTVSPost2010Prop39
140
1.0
102
RTVSPost2010PropOp39
 70
     1
102
RTVSPost2010Prop40
 90
        0
102
RTVSPost2010PropOp40
 70
     1
102
RTVSPost2010Prop41ColorIndex
 90
       18
102
RTVSPost2010Prop41ColorRGB
 90
        0
102
RTVSPost2010PropOp41
 70
     1
102
RTVSPost2010Prop42
 90
       50
102
RTVSPost2010PropOp42
 70
     1
102
RTVSPost2010Prop43
 90
        3
102
RTVSPost2010PropOp43
 70
     1
102
RTVSPost2010Prop44ColorIndex
 90
        5
102
RTVSPost2010Prop44ColorRGB
 90
      255
102
RTVSPost2010PropOp44
 70
     1
102
RTVSPost2010Prop45
280
     0
102
RTVSPost2010PropOp45
 70
     1
102
RTVSPost2010Prop46
 90
       50
102
RTVSPost2010PropOp46
 70
     1
102
RTVSPost2010Prop47
 90
       50
102
RTVSPost2010PropOp47
 70
     1
102
RTVSPost2010Prop48
 90
       50
102
RTVSPost2010PropOp48
 70
     1
102
RTVSPost2010Prop49
280
     0
102
RTVSPost2010PropOp49
 70
     1
102
RTVSPost2010Prop50
 90
       50
102
RTVSPost2010PropOp50
 70
     1
102
RTVSPost2010Prop51ColorIndex
 90
      256
102
RTVSPost2010Prop51ColorRGB
 90
-16777216
102
RTVSPost2010PropOp51
 70
     0
102
RTVSPost2010Prop52
140
1.0
102
RTVSPost2010PropOp52
 70
     0
102
RTVSPost2010Prop53
 90
        2
102
RTVSPost2010PropOp53
 70
     1
102
RTVSPost2010Prop54
  1
strokes_ogs.tif
102
RTVSPost2010PropOp54
 70
     1
102
RTVSPost2010Prop55
280
     0
102
RTVSPost2010PropOp55
 70
     1
102
RTVSPost2010Prop56
140
1.0
102
RTVSPost2010PropOp56
 70
     1
102
RTVSPost2010Prop57
140
1.0
102
RTVSPost2010PropOp57
 70
     1
  0
XRECORD
  5
393
102
{ACAD_REACTORS
330
392
102
}
330
392
100
AcDbXrecord
280
     1
102
RTVSPropertyOp0
 70
     0
102
RTVSPropertyOp1
 70
     0
102
RTVSPropertyOp2
 70
     0
102
RTVSPropertyOp3
 70
     0
102
RTVSPropertyOp4
 70
     0
102
RTVSPropertyOp5
 70
     0
102
RTVSPropertyOp6
 70
     0
102
RTVSPropertyOp7
 70
     0
102
RTVSPropertyOp8
 70
     0
102
RTVSPropertyOp9
 70
     0
102
RTVSPropertyOp10
 70
     0
102
RTVSPropertyOp11
 70
     0
102
RTVSPropertyOp12
 70
     0
102
RTVSPropertyOp13
 70
     0
102
RTVSPropertyOp14
 70
     2
102
RTVSPropertyOp15
 70
     0
102
RTVSPropertyOp16
 70
     0
102
RTVSPropertyOp17
 70
     0
102
RTVSPropertyOp18
 70
     0
102
RTVSPropertyOp19
 70
     0
102
RTVSPropertyOp20
 70
     0
102
RTVSPropertyOp21
 70
     0
102
RTVSPropertyOp22
 70
     0
102
RTVSPropertyOp23
 70
     0
102
RTVSPropertyOp24
 70
     0
102
RTVSPropertyOp25
 70
     0
102
RTVSPropertyOp26
 70
     0
102
RTVSPropertyOp27
 70
     0
102
RTVSPropertyOp28
 70
     0
102
RTVSPropertyOp29
 70
     0
102
RTVSPropertyOp30
 70
     0
102
RTVSPropertyOp31
 70
     0
102
RTVSPropertyOp32
 70
     0
102
RTVSPropertyOp33
 70
     0
102
RTVSPropertyOp34
 70
     0
102
RTVSPropertyOp35
 70
     0
102
RTVSPropertyOp36
 70
     0
102
RTVSPropertyOp37
 70
     0
102
RTVSPropertyOp38
 70
     0
102
RTVSPropertyOp39
 70
     0
102
RTVSPropertyOp40
 70
     0
102
RTVSPropertyOp41
 70
     0
102
RTVSPropertyOp42
 70
     0
102
RTVSPropertyOp43
 70
     0
102
RTVSPropertyOp44
 70
     0
102
RTVSPropertyOp45
 70
     0
102
RTVSPropertyOp46
 70
     0
102
RTVSPropertyOp47
 70
     0
102
RTVSPropertyOp48
 70
     0
102
RTVSPropertyOp49
 70
     0
102
RTVSPropertyOp50
 70
     0
102
RTVSPropertyOp51
 70
     0
102
RTVSPropertyOp52
 70
     0
102
RTVSPropertyOp53
 70
     0
102
RTVSPropertyOp54
 70
     0
102
RTVSPropertyOp55
 70
     0
102
RTVSPropertyOp56
 70
     0
102
RTVSPropertyOp57
 70
     0
102
RTVSPost2010Prop28
280
     0
102
RTVSPost2010PropOp28
 70
     0
102
RTVSPost2010Prop29
280
     1
102
RTVSPost2010PropOp29
 70
     0
102
RTVSPost2010Prop30
280
     1
102
RTVSPost2010PropOp30
 70
     0
102
RTVSPost2010Prop31
280
     0
102
RTVSPost2010PropOp31
 70
     0
102
RTVSPost2010Prop32
280
     0
102
RTVSPost2010PropOp32
 70
     0
102
RTVSPost2010Prop33
280
     0
102
RTVSPost2010PropOp33
 70
     0
102
RTVSPost2010Prop34
280
     0
102
RTVSPost2010PropOp34
 70
     0
102
RTVSPost2010Prop35
280
     0
102
RTVSPost2010PropOp35
 70
     0
102
RTVSPost2010Prop36
280
     0
102
RTVSPost2010PropOp36
 70
     0
102
RTVSPost2010Prop37
 90
       50
102
RTVSPost2010PropOp37
 70
     0
102
RTVSPost2010Prop38
140
0.0
102
RTVSPost2010PropOp38
 70
     0
102
RTVSPost2010Prop39
140
1.0
102
RTVSPost2010PropOp39
 70
     0
102
RTVSPost2010Prop40
 90
        0
102
RTVSPost2010PropOp40
 70
     0
102
RTVSPost2010Prop41ColorIndex
 90
       18
102
RTVSPost2010Prop41ColorRGB
 90
        0
102
RTVSPost2010PropOp41
 70
     0
102
RTVSPost2010Prop42
 90
       50
102
RTVSPost2010PropOp42
 70
     0
102
RTVSPost2010Prop43
 90
        3
102
RTVSPost2010PropOp43
 70
     0
102
RTVSPost2010Prop44ColorIndex
 90
        5
102
RTVSPost2010Prop44ColorRGB
 90
      255
102
RTVSPost2010PropOp44
 70
     0
102
RTVSPost2010Prop45
280
     0
102
RTVSPost2010PropOp45
 70
     0
102
RTVSPost2010Prop46
 90
       50
102
RTVSPost2010PropOp46
 70
     0
102
RTVSPost2010Prop47
 90
       50
102
RTVSPost2010PropOp47
 70
     0
102
RTVSPost2010Prop48
 90
       50
102
RTVSPost2010PropOp48
 70
     0
102
RTVSPost2010Prop49
280
     0
102
RTVSPost2010PropOp49
 70
     0
102
RTVSPost2010Prop50
 90
       50
102
RTVSPost2010PropOp50
 70
     0
102
RTVSPost2010Prop51ColorIndex
 90
      256
102
RTVSPost2010Prop51ColorRGB
 90
-16777216
102
RTVSPost2010PropOp51
 70
     0
102
RTVSPost2010Prop52
140
1.0
102
RTVSPost2010PropOp52
 70
     0
102
RTVSPost2010Prop53
 90
        2
102
RTVSPost2010PropOp53
 70
     0
102
RTVSPost2010Prop54
  1
strokes_ogs.tif
102
RTVSPost2010PropOp54
 70
     0
102
RTVSPost2010Prop55
280
     0
102
RTVSPost2010PropOp55
 70
     0
102
RTVSPost2010Prop56
140
1.0
102
RTVSPost2010PropOp56
 70
     0
102
RTVSPost2010Prop57
140
1.0
102
RTVSPost2010PropOp57
 70
     0
  0
XRECORD
  5
38D
102
{ACAD_REACTORS
330
38C
102
}
330
38C
100
AcDbXrecord
280
     1
102
RTVSPropertyOp0
 70
     1
102
RTVSPropertyOp1
 70
     1
102
RTVSPropertyOp2
 70
     1
102
RTVSPropertyOp3
 70
     1
102
RTVSPropertyOp4
 70
     1
102
RTVSPropertyOp5
 70
     1
102
RTVSPropertyOp6
 70
     1
102
RTVSPropertyOp7
 70
     1
102
RTVSPropertyOp8
 70
     1
102
RTVSPropertyOp9
 70
     1
102
RTVSPropertyOp10
 70
     1
102
RTVSPropertyOp11
 70
     1
102
RTVSPropertyOp12
 70
     1
102
RTVSPropertyOp13
 70
     1
102
RTVSPropertyOp14
 70
     1
102
RTVSPropertyOp15
 70
     1
102
RTVSPropertyOp16
 70
     1
102
RTVSPropertyOp17
 70
     1
102
RTVSPropertyOp18
 70
     1
102
RTVSPropertyOp19
 70
     1
102
RTVSPropertyOp20
 70
     1
102
RTVSPropertyOp21
 70
     1
102
RTVSPropertyOp22
 70
     1
102
RTVSPropertyOp23
 70
     1
102
RTVSPropertyOp24
 70
     1
102
RTVSPropertyOp25
 70
     1
102
RTVSPropertyOp26
 70
     1
102
RTVSPropertyOp27
 70
     1
102
RTVSPropertyOp28
 70
     1
102
RTVSPropertyOp29
 70
     1
102
RTVSPropertyOp30
 70
     1
102
RTVSPropertyOp31
 70
     1
102
RTVSPropertyOp32
 70
     1
102
RTVSPropertyOp33
 70
     1
102
RTVSPropertyOp34
 70
     1
102
RTVSPropertyOp35
 70
     1
102
RTVSPropertyOp36
 70
     1
102
RTVSPropertyOp37
 70
     1
102
RTVSPropertyOp38
 70
     1
102
RTVSPropertyOp39
 70
     1
102
RTVSPropertyOp40
 70
     1
102
RTVSPropertyOp41
 70
     1
102
RTVSPropertyOp42
 70
     1
102
RTVSPropertyOp43
 70
     1
102
RTVSPropertyOp44
 70
     1
102
RTVSPropertyOp45
 70
     1
102
RTVSPropertyOp46
 70
     1
102
RTVSPropertyOp47
 70
     1
102
RTVSPropertyOp48
 70
     1
102
RTVSPropertyOp49
 70
     1
102
RTVSPropertyOp50
 70
     1
102
RTVSPropertyOp51
 70
     0
102
RTVSPropertyOp52
 70
     0
102
RTVSPropertyOp53
 70
     1
102
RTVSPropertyOp54
 70
     1
102
RTVSPropertyOp55
 70
     1
102
RTVSPropertyOp56
 70
     1
102
RTVSPropertyOp57
 70
     1
102
RTVSPost2010Prop28
280
     0
102
RTVSPost2010PropOp28
 70
     1
102
RTVSPost2010Prop29
280
     1
102
RTVSPost2010PropOp29
 70
     1
102
RTVSPost2010Prop30
280
     1
102
RTVSPost2010PropOp30
 70
     1
102
RTVSPost2010Prop31
280
     0
102
RTVSPost2010PropOp31
 70
     1
102
RTVSPost2010Prop32
280
     0
102
RTVSPost2010PropOp32
 70
     1
102
RTVSPost2010Prop33
280
     0
102
RTVSPost2010PropOp33
 70
     1
102
RTVSPost2010Prop34
280
     0
102
RTVSPost2010PropOp34
 70
     1
102
RTVSPost2010Prop35
280
     0
102
RTVSPost2010PropOp35
 70
     1
102
RTVSPost2010Prop36
280
     0
102
RTVSPost2010PropOp36
 70
     1
102
RTVSPost2010Prop37
 90
       50
102
RTVSPost2010PropOp37
 70
     1
102
RTVSPost2010Prop38
140
0.0
102
RTVSPost2010PropOp38
 70
     1
102
RTVSPost2010Prop39
140
1.0
102
RTVSPost2010PropOp39
 70
     1
102
RTVSPost2010Prop40
 90
        0
102
RTVSPost2010PropOp40
 70
     1
102
RTVSPost2010Prop41ColorIndex
 90
       18
102
RTVSPost2010Prop41ColorRGB
 90
        0
102
RTVSPost2010PropOp41
 70
     1
102
RTVSPost2010Prop42
 90
       50
102
RTVSPost2010PropOp42
 70
     1
102
RTVSPost2010Prop43
 90
        3
102
RTVSPost2010PropOp43
 70
     1
102
RTVSPost2010Prop44ColorIndex
 90
        5
102
RTVSPost2010Prop44ColorRGB
 90
      255
102
RTVSPost2010PropOp44
 70
     1
102
RTVSPost2010Prop45
280
     0
102
RTVSPost2010PropOp45
 70
     1
102
RTVSPost2010Prop46
 90
       50
102
RTVSPost2010PropOp46
 70
     1
102
RTVSPost2010Prop47
 90
       50
102
RTVSPost2010PropOp47
 70
     1
102
RTVSPost2010Prop48
 90
       50
102
RTVSPost2010PropOp48
 70
     1
102
RTVSPost2010Prop49
280
     0
102
RTVSPost2010PropOp49
 70
     1
102
RTVSPost2010Prop50
 90
       50
102
RTVSPost2010PropOp50
 70
     1
102
RTVSPost2010Prop51ColorIndex
 90
      256
102
RTVSPost2010Prop51ColorRGB
 90
-16777216
102
RTVSPost2010PropOp51
 70
     0
102
RTVSPost2010Prop52
140
1.0
102
RTVSPost2010PropOp52
 70
     0
102
RTVSPost2010Prop53
 90
        2
102
RTVSPost2010PropOp53
 70
     1
102
RTVSPost2010Prop54
  1
strokes_ogs.tif
102
RTVSPost2010PropOp54
 70
     1
102
RTVSPost2010Prop55
280
     0
102
RTVSPost2010PropOp55
 70
     1
102
RTVSPost2010Prop56
140
1.0
102
RTVSPost2010PropOp56
 70
     1
102
RTVSPost2010Prop57
140
1.0
102
RTVSPost2010PropOp57
 70
     1
  0
XRECORD
  5
395
102
{ACAD_REACTORS
330
394
102
}
330
394
100
AcDbXrecord
280
     1
102
RTVSPropertyOp0
 70
     0
102
RTVSPropertyOp1
 70
     0
102
RTVSPropertyOp2
 70
     0
102
RTVSPropertyOp3
 70
     0
102
RTVSPropertyOp4
 70
     0
102
RTVSPropertyOp5
 70
     0
102
RTVSPropertyOp6
 70
     0
102
RTVSPropertyOp7
 70
     0
102
RTVSPropertyOp8
 70
     0
102
RTVSPropertyOp9
 70
     0
102
RTVSPropertyOp10
 70
     0
102
RTVSPropertyOp11
 70
     0
102
RTVSPropertyOp12
 70
     0
102
RTVSPropertyOp13
 70
     0
102
RTVSPropertyOp14
 70
     2
102
RTVSPropertyOp15
 70
     0
102
RTVSPropertyOp16
 70
     0
102
RTVSPropertyOp17
 70
     0
102
RTVSPropertyOp18
 70
     0
102
RTVSPropertyOp19
 70
     0
102
RTVSPropertyOp20
 70
     0
102
RTVSPropertyOp21
 70
     0
102
RTVSPropertyOp22
 70
     0
102
RTVSPropertyOp23
 70
     0
102
RTVSPropertyOp24
 70
     0
102
RTVSPropertyOp25
 70
     0
102
RTVSPropertyOp26
 70
     0
102
RTVSPropertyOp27
 70
     0
102
RTVSPropertyOp28
 70
     0
102
RTVSPropertyOp29
 70
     0
102
RTVSPropertyOp30
 70
     0
102
RTVSPropertyOp31
 70
     0
102
RTVSPropertyOp32
 70
     0
102
RTVSPropertyOp33
 70
     0
102
RTVSPropertyOp34
 70
     0
102
RTVSPropertyOp35
 70
     0
102
RTVSPropertyOp36
 70
     0
102
RTVSPropertyOp37
 70
     0
102
RTVSPropertyOp38
 70
     0
102
RTVSPropertyOp39
 70
     0
102
RTVSPropertyOp40
 70
     0
102
RTVSPropertyOp41
 70
     0
102
RTVSPropertyOp42
 70
     0
102
RTVSPropertyOp43
 70
     0
102
RTVSPropertyOp44
 70
     0
102
RTVSPropertyOp45
 70
     0
102
RTVSPropertyOp46
 70
     0
102
RTVSPropertyOp47
 70
     0
102
RTVSPropertyOp48
 70
     0
102
RTVSPropertyOp49
 70
     0
102
RTVSPropertyOp50
 70
     0
102
RTVSPropertyOp51
 70
     0
102
RTVSPropertyOp52
 70
     0
102
RTVSPropertyOp53
 70
     0
102
RTVSPropertyOp54
 70
     0
102
RTVSPropertyOp55
 70
     0
102
RTVSPropertyOp56
 70
     0
102
RTVSPropertyOp57
 70
     0
102
RTVSPost2010Prop28
280
     0
102
RTVSPost2010PropOp28
 70
     0
102
RTVSPost2010Prop29
280
     1
102
RTVSPost2010PropOp29
 70
     0
102
RTVSPost2010Prop30
280
     1
102
RTVSPost2010PropOp30
 70
     0
102
RTVSPost2010Prop31
280
     0
102
RTVSPost2010PropOp31
 70
     0
102
RTVSPost2010Prop32
280
     0
102
RTVSPost2010PropOp32
 70
     0
102
RTVSPost2010Prop33
280
     0
102
RTVSPost2010PropOp33
 70
     0
102
RTVSPost2010Prop34
280
     0
102
RTVSPost2010PropOp34
 70
     0
102
RTVSPost2010Prop35
280
     0
102
RTVSPost2010PropOp35
 70
     0
102
RTVSPost2010Prop36
280
     0
102
RTVSPost2010PropOp36
 70
     0
102
RTVSPost2010Prop37
 90
       50
102
RTVSPost2010PropOp37
 70
     0
102
RTVSPost2010Prop38
140
0.0
102
RTVSPost2010PropOp38
 70
     0
102
RTVSPost2010Prop39
140
1.0
102
RTVSPost2010PropOp39
 70
     0
102
RTVSPost2010Prop40
 90
        0
102
RTVSPost2010PropOp40
 70
     0
102
RTVSPost2010Prop41ColorIndex
 90
       18
102
RTVSPost2010Prop41ColorRGB
 90
        0
102
RTVSPost2010PropOp41
 70
     0
102
RTVSPost2010Prop42
 90
       50
102
RTVSPost2010PropOp42
 70
     0
102
RTVSPost2010Prop43
 90
        3
102
RTVSPost2010PropOp43
 70
     0
102
RTVSPost2010Prop44ColorIndex
 90
        5
102
RTVSPost2010Prop44ColorRGB
 90
      255
102
RTVSPost2010PropOp44
 70
     0
102
RTVSPost2010Prop45
280
     0
102
RTVSPost2010PropOp45
 70
     0
102
RTVSPost2010Prop46
 90
       50
102
RTVSPost2010PropOp46
 70
     0
102
RTVSPost2010Prop47
 90
       50
102
RTVSPost2010PropOp47
 70
     0
102
RTVSPost2010Prop48
 90
       50
102
RTVSPost2010PropOp48
 70
     0
102
RTVSPost2010Prop49
280
     0
102
RTVSPost2010PropOp49
 70
     0
102
RTVSPost2010Prop50
 90
       50
102
RTVSPost2010PropOp50
 70
     0
102
RTVSPost2010Prop51ColorIndex
 90
      256
102
RTVSPost2010Prop51ColorRGB
 90
-16777216
102
RTVSPost2010PropOp51
 70
     0
102
RTVSPost2010Prop52
140
1.0
102
RTVSPost2010PropOp52
 70
     0
102
RTVSPost2010Prop53
 90
        2
102
RTVSPost2010PropOp53
 70
     0
102
RTVSPost2010Prop54
  1
strokes_ogs.tif
102
RTVSPost2010PropOp54
 70
     0
102
RTVSPost2010Prop55
280
     0
102
RTVSPost2010PropOp55
 70
     0
102
RTVSPost2010Prop56
140
1.0
102
RTVSPost2010PropOp56
 70
     0
102
RTVSPost2010Prop57
140
1.0
102
RTVSPost2010PropOp57
 70
     0
  0
XRECORD
  5
383
102
{ACAD_REACTORS
330
382
102
}
330
382
100
AcDbXrecord
280
     1
102
RTVSPropertyOp0
 70
     1
102
RTVSPropertyOp1
 70
     1
102
RTVSPropertyOp2
 70
     1
102
RTVSPropertyOp3
 70
     1
102
RTVSPropertyOp4
 70
     1
102
RTVSPropertyOp5
 70
     1
102
RTVSPropertyOp6
 70
     1
102
RTVSPropertyOp7
 70
     1
102
RTVSPropertyOp8
 70
     1
102
RTVSPropertyOp9
 70
     1
102
RTVSPropertyOp10
 70
     1
102
RTVSPropertyOp11
 70
     1
102
RTVSPropertyOp12
 70
     1
102
RTVSPropertyOp13
 70
     1
102
RTVSPropertyOp14
 70
     1
102
RTVSPropertyOp15
 70
     1
102
RTVSPropertyOp16
 70
     1
102
RTVSPropertyOp17
 70
     1
102
RTVSPropertyOp18
 70
     1
102
RTVSPropertyOp19
 70
     1
102
RTVSPropertyOp20
 70
     1
102
RTVSPropertyOp21
 70
     1
102
RTVSPropertyOp22
 70
     1
102
RTVSPropertyOp23
 70
     1
102
RTVSPropertyOp24
 70
     1
102
RTVSPropertyOp25
 70
     1
102
RTVSPropertyOp26
 70
     1
102
RTVSPropertyOp27
 70
     1
102
RTVSPropertyOp28
 70
     1
102
RTVSPropertyOp29
 70
     1
102
RTVSPropertyOp30
 70
     1
102
RTVSPropertyOp31
 70
     1
102
RTVSPropertyOp32
 70
     1
102
RTVSPropertyOp33
 70
     1
102
RTVSPropertyOp34
 70
     1
102
RTVSPropertyOp35
 70
     1
102
RTVSPropertyOp36
 70
     1
102
RTVSPropertyOp37
 70
     1
102
RTVSPropertyOp38
 70
     1
102
RTVSPropertyOp39
 70
     1
102
RTVSPropertyOp40
 70
     1
102
RTVSPropertyOp41
 70
     1
102
RTVSPropertyOp42
 70
     1
102
RTVSPropertyOp43
 70
     1
102
RTVSPropertyOp44
 70
     1
102
RTVSPropertyOp45
 70
     1
102
RTVSPropertyOp46
 70
     1
102
RTVSPropertyOp47
 70
     1
102
RTVSPropertyOp48
 70
     1
102
RTVSPropertyOp49
 70
     1
102
RTVSPropertyOp50
 70
     1
102
RTVSPropertyOp51
 70
     0
102
RTVSPropertyOp52
 70
     0
102
RTVSPropertyOp53
 70
     1
102
RTVSPropertyOp54
 70
     1
102
RTVSPropertyOp55
 70
     1
102
RTVSPropertyOp56
 70
     1
102
RTVSPropertyOp57
 70
     1
102
RTVSPost2010Prop28
280
     0
102
RTVSPost2010PropOp28
 70
     1
102
RTVSPost2010Prop29
280
     1
102
RTVSPost2010PropOp29
 70
     1
102
RTVSPost2010Prop30
280
     1
102
RTVSPost2010PropOp30
 70
     1
102
RTVSPost2010Prop31
280
     0
102
RTVSPost2010PropOp31
 70
     1
102
RTVSPost2010Prop32
280
     0
102
RTVSPost2010PropOp32
 70
     1
102
RTVSPost2010Prop33
280
     0
102
RTVSPost2010PropOp33
 70
     1
102
RTVSPost2010Prop34
280
     0
102
RTVSPost2010PropOp34
 70
     1
102
RTVSPost2010Prop35
280
     0
102
RTVSPost2010PropOp35
 70
     1
102
RTVSPost2010Prop36
280
     0
102
RTVSPost2010PropOp36
 70
     1
102
RTVSPost2010Prop37
 90
       50
102
RTVSPost2010PropOp37
 70
     1
102
RTVSPost2010Prop38
140
0.0
102
RTVSPost2010PropOp38
 70
     1
102
RTVSPost2010Prop39
140
1.0
102
RTVSPost2010PropOp39
 70
     1
102
RTVSPost2010Prop40
 90
        0
102
RTVSPost2010PropOp40
 70
     1
102
RTVSPost2010Prop41ColorIndex
 90
       18
102
RTVSPost2010Prop41ColorRGB
 90
        0
102
RTVSPost2010PropOp41
 70
     1
102
RTVSPost2010Prop42
 90
       50
102
RTVSPost2010PropOp42
 70
     1
102
RTVSPost2010Prop43
 90
        3
102
RTVSPost2010PropOp43
 70
     1
102
RTVSPost2010Prop44ColorIndex
 90
        5
102
RTVSPost2010Prop44ColorRGB
 90
      255
102
RTVSPost2010PropOp44
 70
     1
102
RTVSPost2010Prop45
280
     0
102
RTVSPost2010PropOp45
 70
     1
102
RTVSPost2010Prop46
 90
       50
102
RTVSPost2010PropOp46
 70
     1
102
RTVSPost2010Prop47
 90
       50
102
RTVSPost2010PropOp47
 70
     1
102
RTVSPost2010Prop48
 90
       50
102
RTVSPost2010PropOp48
 70
     1
102
RTVSPost2010Prop49
280
     0
102
RTVSPost2010PropOp49
 70
     1
102
RTVSPost2010Prop50
 90
       50
102
RTVSPost2010PropOp50
 70
     1
102
RTVSPost2010Prop51ColorIndex
 90
      256
102
RTVSPost2010Prop51ColorRGB
 90
-16777216
102
RTVSPost2010PropOp51
 70
     0
102
RTVSPost2010Prop52
140
1.0
102
RTVSPost2010PropOp52
 70
     0
102
RTVSPost2010Prop53
 90
        2
102
RTVSPost2010PropOp53
 70
     1
102
RTVSPost2010Prop54
  1
strokes_ogs.tif
102
RTVSPost2010PropOp54
 70
     1
102
RTVSPost2010Prop55
280
     0
102
RTVSPost2010PropOp55
 70
     1
102
RTVSPost2010Prop56
140
1.0
102
RTVSPost2010PropOp56
 70
     1
102
RTVSPost2010Prop57
140
1.0
102
RTVSPost2010PropOp57
 70
     1
  0
XRECORD
  5
3A1
102
{ACAD_REACTORS
330
3A0
102
}
330
3A0
100
AcDbXrecord
280
     1
102
RTVSPropertyOp0
 70
     1
102
RTVSPropertyOp1
 70
     1
102
RTVSPropertyOp2
 70
     1
102
RTVSPropertyOp3
 70
     1
102
RTVSPropertyOp4
 70
     1
102
RTVSPropertyOp5
 70
     1
102
RTVSPropertyOp6
 70
     1
102
RTVSPropertyOp7
 70
     1
102
RTVSPropertyOp8
 70
     1
102
RTVSPropertyOp9
 70
     1
102
RTVSPropertyOp10
 70
     1
102
RTVSPropertyOp11
 70
     1
102
RTVSPropertyOp12
 70
     1
102
RTVSPropertyOp13
 70
     1
102
RTVSPropertyOp14
 70
     1
102
RTVSPropertyOp15
 70
     1
102
RTVSPropertyOp16
 70
     1
102
RTVSPropertyOp17
 70
     1
102
RTVSPropertyOp18
 70
     1
102
RTVSPropertyOp19
 70
     1
102
RTVSPropertyOp20
 70
     1
102
RTVSPropertyOp21
 70
     1
102
RTVSPropertyOp22
 70
     1
102
RTVSPropertyOp23
 70
     1
102
RTVSPropertyOp24
 70
     1
102
RTVSPropertyOp25
 70
     1
102
RTVSPropertyOp26
 70
     1
102
RTVSPropertyOp27
 70
     1
102
RTVSPropertyOp28
 70
     1
102
RTVSPropertyOp29
 70
     1
102
RTVSPropertyOp30
 70
     1
102
RTVSPropertyOp31
 70
     1
102
RTVSPropertyOp32
 70
     1
102
RTVSPropertyOp33
 70
     1
102
RTVSPropertyOp34
 70
     1
102
RTVSPropertyOp35
 70
     1
102
RTVSPropertyOp36
 70
     1
102
RTVSPropertyOp37
 70
     1
102
RTVSPropertyOp38
 70
     1
102
RTVSPropertyOp39
 70
     1
102
RTVSPropertyOp40
 70
     1
102
RTVSPropertyOp41
 70
     1
102
RTVSPropertyOp42
 70
     1
102
RTVSPropertyOp43
 70
     1
102
RTVSPropertyOp44
 70
     1
102
RTVSPropertyOp45
 70
     1
102
RTVSPropertyOp46
 70
     1
102
RTVSPropertyOp47
 70
     1
102
RTVSPropertyOp48
 70
     1
102
RTVSPropertyOp49
 70
     1
102
RTVSPropertyOp50
 70
     1
102
RTVSPropertyOp51
 70
     0
102
RTVSPropertyOp52
 70
     0
102
RTVSPropertyOp53
 70
     1
102
RTVSPropertyOp54
 70
     1
102
RTVSPropertyOp55
 70
     1
102
RTVSPropertyOp56
 70
     1
102
RTVSPropertyOp57
 70
     1
102
RTVSPost2010Prop28
280
     0
102
RTVSPost2010PropOp28
 70
     1
102
RTVSPost2010Prop29
280
     1
102
RTVSPost2010PropOp29
 70
     1
102
RTVSPost2010Prop30
280
     1
102
RTVSPost2010PropOp30
 70
     1
102
RTVSPost2010Prop31
280
     0
102
RTVSPost2010PropOp31
 70
     1
102
RTVSPost2010Prop32
280
     0
102
RTVSPost2010PropOp32
 70
     1
102
RTVSPost2010Prop33
280
     0
102
RTVSPost2010PropOp33
 70
     1
102
RTVSPost2010Prop34
280
     0
102
RTVSPost2010PropOp34
 70
     1
102
RTVSPost2010Prop35
280
     0
102
RTVSPost2010PropOp35
 70
     1
102
RTVSPost2010Prop36
280
     0
102
RTVSPost2010PropOp36
 70
     1
102
RTVSPost2010Prop37
 90
       50
102
RTVSPost2010PropOp37
 70
     1
102
RTVSPost2010Prop38
140
0.0
102
RTVSPost2010PropOp38
 70
     1
102
RTVSPost2010Prop39
140
1.0
102
RTVSPost2010PropOp39
 70
     1
102
RTVSPost2010Prop40
 90
        0
102
RTVSPost2010PropOp40
 70
     1
102
RTVSPost2010Prop41ColorIndex
 90
       18
102
RTVSPost2010Prop41ColorRGB
 90
        0
102
RTVSPost2010PropOp41
 70
     1
102
RTVSPost2010Prop42
 90
       50
102
RTVSPost2010PropOp42
 70
     1
102
RTVSPost2010Prop43
 90
        3
102
RTVSPost2010PropOp43
 70
     1
102
RTVSPost2010Prop44ColorIndex
 90
        5
102
RTVSPost2010Prop44ColorRGB
 90
      255
102
RTVSPost2010PropOp44
 70
     1
102
RTVSPost2010Prop45
280
     0
102
RTVSPost2010PropOp45
 70
     1
102
RTVSPost2010Prop46
 90
       50
102
RTVSPost2010PropOp46
 70
     1
102
RTVSPost2010Prop47
 90
       50
102
RTVSPost2010PropOp47
 70
     1
102
RTVSPost2010Prop48
 90
       50
102
RTVSPost2010PropOp48
 70
     1
102
RTVSPost2010Prop49
280
     0
102
RTVSPost2010PropOp49
 70
     1
102
RTVSPost2010Prop50
 90
       50
102
RTVSPost2010PropOp50
 70
     1
102
RTVSPost2010Prop51ColorIndex
 90
      256
102
RTVSPost2010Prop51ColorRGB
 90
-16777216
102
RTVSPost2010PropOp51
 70
     0
102
RTVSPost2010Prop52
140
1.0
102
RTVSPost2010PropOp52
 70
     0
102
RTVSPost2010Prop53
 90
        2
102
RTVSPost2010PropOp53
 70
     1
102
RTVSPost2010Prop54
  1
strokes_ogs.tif
102
RTVSPost2010PropOp54
 70
     1
102
RTVSPost2010Prop55
280
     0
102
RTVSPost2010PropOp55
 70
     1
102
RTVSPost2010Prop56
140
1.0
102
RTVSPost2010PropOp56
 70
     1
102
RTVSPost2010Prop57
140
1.0
102
RTVSPost2010PropOp57
 70
     1
  0
XRECORD
  5
39F
102
{ACAD_REACTORS
330
39E
102
}
330
39E
100
AcDbXrecord
280
     1
102
RTVSPropertyOp0
 70
     1
102
RTVSPropertyOp1
 70
     1
102
RTVSPropertyOp2
 70
     1
102
RTVSPropertyOp3
 70
     1
102
RTVSPropertyOp4
 70
     1
102
RTVSPropertyOp5
 70
     1
102
RTVSPropertyOp6
 70
     1
102
RTVSPropertyOp7
 70
     1
102
RTVSPropertyOp8
 70
     1
102
RTVSPropertyOp9
 70
     1
102
RTVSPropertyOp10
 70
     1
102
RTVSPropertyOp11
 70
     1
102
RTVSPropertyOp12
 70
     1
102
RTVSPropertyOp13
 70
     1
102
RTVSPropertyOp14
 70
     1
102
RTVSPropertyOp15
 70
     1
102
RTVSPropertyOp16
 70
     1
102
RTVSPropertyOp17
 70
     1
102
RTVSPropertyOp18
 70
     1
102
RTVSPropertyOp19
 70
     1
102
RTVSPropertyOp20
 70
     1
102
RTVSPropertyOp21
 70
     1
102
RTVSPropertyOp22
 70
     1
102
RTVSPropertyOp23
 70
     1
102
RTVSPropertyOp24
 70
     1
102
RTVSPropertyOp25
 70
     1
102
RTVSPropertyOp26
 70
     1
102
RTVSPropertyOp27
 70
     1
102
RTVSPropertyOp28
 70
     1
102
RTVSPropertyOp29
 70
     1
102
RTVSPropertyOp30
 70
     1
102
RTVSPropertyOp31
 70
     1
102
RTVSPropertyOp32
 70
     1
102
RTVSPropertyOp33
 70
     1
102
RTVSPropertyOp34
 70
     1
102
RTVSPropertyOp35
 70
     1
102
RTVSPropertyOp36
 70
     1
102
RTVSPropertyOp37
 70
     1
102
RTVSPropertyOp38
 70
     1
102
RTVSPropertyOp39
 70
     1
102
RTVSPropertyOp40
 70
     1
102
RTVSPropertyOp41
 70
     1
102
RTVSPropertyOp42
 70
     1
102
RTVSPropertyOp43
 70
     1
102
RTVSPropertyOp44
 70
     1
102
RTVSPropertyOp45
 70
     1
102
RTVSPropertyOp46
 70
     1
102
RTVSPropertyOp47
 70
     1
102
RTVSPropertyOp48
 70
     1
102
RTVSPropertyOp49
 70
     1
102
RTVSPropertyOp50
 70
     1
102
RTVSPropertyOp51
 70
     0
102
RTVSPropertyOp52
 70
     0
102
RTVSPropertyOp53
 70
     1
102
RTVSPropertyOp54
 70
     1
102
RTVSPropertyOp55
 70
     1
102
RTVSPropertyOp56
 70
     1
102
RTVSPropertyOp57
 70
     1
102
RTVSPost2010Prop28
280
     0
102
RTVSPost2010PropOp28
 70
     1
102
RTVSPost2010Prop29
280
     1
102
RTVSPost2010PropOp29
 70
     1
102
RTVSPost2010Prop30
280
     1
102
RTVSPost2010PropOp30
 70
     1
102
RTVSPost2010Prop31
280
     0
102
RTVSPost2010PropOp31
 70
     1
102
RTVSPost2010Prop32
280
     0
102
RTVSPost2010PropOp32
 70
     1
102
RTVSPost2010Prop33
280
     0
102
RTVSPost2010PropOp33
 70
     1
102
RTVSPost2010Prop34
280
     0
102
RTVSPost2010PropOp34
 70
     1
102
RTVSPost2010Prop35
280
     0
102
RTVSPost2010PropOp35
 70
     1
102
RTVSPost2010Prop36
280
     0
102
RTVSPost2010PropOp36
 70
     1
102
RTVSPost2010Prop37
 90
       50
102
RTVSPost2010PropOp37
 70
     1
102
RTVSPost2010Prop38
140
0.0
102
RTVSPost2010PropOp38
 70
     1
102
RTVSPost2010Prop39
140
1.0
102
RTVSPost2010PropOp39
 70
     1
102
RTVSPost2010Prop40
 90
        0
102
RTVSPost2010PropOp40
 70
     1
102
RTVSPost2010Prop41ColorIndex
 90
       18
102
RTVSPost2010Prop41ColorRGB
 90
        0
102
RTVSPost2010PropOp41
 70
     1
102
RTVSPost2010Prop42
 90
       50
102
RTVSPost2010PropOp42
 70
     1
102
RTVSPost2010Prop43
 90
        3
102
RTVSPost2010PropOp43
 70
     1
102
RTVSPost2010Prop44ColorIndex
 90
        5
102
RTVSPost2010Prop44ColorRGB
 90
      255
102
RTVSPost2010PropOp44
 70
     1
102
RTVSPost2010Prop45
280
     0
102
RTVSPost2010PropOp45
 70
     1
102
RTVSPost2010Prop46
 90
       50
102
RTVSPost2010PropOp46
 70
     1
102
RTVSPost2010Prop47
 90
       50
102
RTVSPost2010PropOp47
 70
     1
102
RTVSPost2010Prop48
 90
       50
102
RTVSPost2010PropOp48
 70
     1
102
RTVSPost2010Prop49
280
     0
102
RTVSPost2010PropOp49
 70
     1
102
RTVSPost2010Prop50
 90
       50
102
RTVSPost2010PropOp50
 70
     1
102
RTVSPost2010Prop51ColorIndex
 90
      256
102
RTVSPost2010Prop51ColorRGB
 90
-16777216
102
RTVSPost2010PropOp51
 70
     0
102
RTVSPost2010Prop52
140
1.0
102
RTVSPost2010PropOp52
 70
     0
102
RTVSPost2010Prop53
 90
        2
102
RTVSPost2010PropOp53
 70
     1
102
RTVSPost2010Prop54
  1
strokes_ogs.tif
102
RTVSPost2010PropOp54
 70
     1
102
RTVSPost2010Prop55
280
     0
102
RTVSPost2010PropOp55
 70
     1
102
RTVSPost2010Prop56
140
1.0
102
RTVSPost2010PropOp56
 70
     1
102
RTVSPost2010Prop57
140
1.0
102
RTVSPost2010PropOp57
 70
     1
  0
XRECORD
  5
399
102
{ACAD_REACTORS
330
398
102
}
330
398
100
AcDbXrecord
280
     1
102
RTVSPropertyOp0
 70
     1
102
RTVSPropertyOp1
 70
     1
102
RTVSPropertyOp2
 70
     1
102
RTVSPropertyOp3
 70
     1
102
RTVSPropertyOp4
 70
     1
102
RTVSPropertyOp5
 70
     1
102
RTVSPropertyOp6
 70
     1
102
RTVSPropertyOp7
 70
     1
102
RTVSPropertyOp8
 70
     1
102
RTVSPropertyOp9
 70
     1
102
RTVSPropertyOp10
 70
     1
102
RTVSPropertyOp11
 70
     1
102
RTVSPropertyOp12
 70
     1
102
RTVSPropertyOp13
 70
     1
102
RTVSPropertyOp14
 70
     1
102
RTVSPropertyOp15
 70
     1
102
RTVSPropertyOp16
 70
     1
102
RTVSPropertyOp17
 70
     1
102
RTVSPropertyOp18
 70
     1
102
RTVSPropertyOp19
 70
     1
102
RTVSPropertyOp20
 70
     1
102
RTVSPropertyOp21
 70
     1
102
RTVSPropertyOp22
 70
     1
102
RTVSPropertyOp23
 70
     1
102
RTVSPropertyOp24
 70
     1
102
RTVSPropertyOp25
 70
     1
102
RTVSPropertyOp26
 70
     1
102
RTVSPropertyOp27
 70
     1
102
RTVSPropertyOp28
 70
     1
102
RTVSPropertyOp29
 70
     1
102
RTVSPropertyOp30
 70
     1
102
RTVSPropertyOp31
 70
     1
102
RTVSPropertyOp32
 70
     1
102
RTVSPropertyOp33
 70
     1
102
RTVSPropertyOp34
 70
     1
102
RTVSPropertyOp35
 70
     1
102
RTVSPropertyOp36
 70
     1
102
RTVSPropertyOp37
 70
     1
102
RTVSPropertyOp38
 70
     1
102
RTVSPropertyOp39
 70
     1
102
RTVSPropertyOp40
 70
     1
102
RTVSPropertyOp41
 70
     1
102
RTVSPropertyOp42
 70
     1
102
RTVSPropertyOp43
 70
     1
102
RTVSPropertyOp44
 70
     1
102
RTVSPropertyOp45
 70
     1
102
RTVSPropertyOp46
 70
     1
102
RTVSPropertyOp47
 70
     1
102
RTVSPropertyOp48
 70
     1
102
RTVSPropertyOp49
 70
     1
102
RTVSPropertyOp50
 70
     1
102
RTVSPropertyOp51
 70
     0
102
RTVSPropertyOp52
 70
     0
102
RTVSPropertyOp53
 70
     1
102
RTVSPropertyOp54
 70
     1
102
RTVSPropertyOp55
 70
     1
102
RTVSPropertyOp56
 70
     1
102
RTVSPropertyOp57
 70
     1
102
RTVSPost2010Prop28
280
     0
102
RTVSPost2010PropOp28
 70
     1
102
RTVSPost2010Prop29
280
     1
102
RTVSPost2010PropOp29
 70
     1
102
RTVSPost2010Prop30
280
     1
102
RTVSPost2010PropOp30
 70
     1
102
RTVSPost2010Prop31
280
     0
102
RTVSPost2010PropOp31
 70
     1
102
RTVSPost2010Prop32
280
     0
102
RTVSPost2010PropOp32
 70
     1
102
RTVSPost2010Prop33
280
     0
102
RTVSPost2010PropOp33
 70
     1
102
RTVSPost2010Prop34
280
     0
102
RTVSPost2010PropOp34
 70
     1
102
RTVSPost2010Prop35
280
     0
102
RTVSPost2010PropOp35
 70
     1
102
RTVSPost2010Prop36
280
     0
102
RTVSPost2010PropOp36
 70
     1
102
RTVSPost2010Prop37
 90
       50
102
RTVSPost2010PropOp37
 70
     1
102
RTVSPost2010Prop38
140
0.0
102
RTVSPost2010PropOp38
 70
     1
102
RTVSPost2010Prop39
140
1.0
102
RTVSPost2010PropOp39
 70
     1
102
RTVSPost2010Prop40
 90
        0
102
RTVSPost2010PropOp40
 70
     1
102
RTVSPost2010Prop41ColorIndex
 90
       18
102
RTVSPost2010Prop41ColorRGB
 90
        0
102
RTVSPost2010PropOp41
 70
     1
102
RTVSPost2010Prop42
 90
       50
102
RTVSPost2010PropOp42
 70
     1
102
RTVSPost2010Prop43
 90
        3
102
RTVSPost2010PropOp43
 70
     1
102
RTVSPost2010Prop44ColorIndex
 90
        5
102
RTVSPost2010Prop44ColorRGB
 90
      255
102
RTVSPost2010PropOp44
 70
     1
102
RTVSPost2010Prop45
280
     0
102
RTVSPost2010PropOp45
 70
     1
102
RTVSPost2010Prop46
 90
       50
102
RTVSPost2010PropOp46
 70
     1
102
RTVSPost2010Prop47
 90
       50
102
RTVSPost2010PropOp47
 70
     1
102
RTVSPost2010Prop48
 90
       50
102
RTVSPost2010PropOp48
 70
     1
102
RTVSPost2010Prop49
280
     0
102
RTVSPost2010PropOp49
 70
     1
102
RTVSPost2010Prop50
 90
       50
102
RTVSPost2010PropOp50
 70
     1
102
RTVSPost2010Prop51ColorIndex
 90
      256
102
RTVSPost2010Prop51ColorRGB
 90
-16777216
102
RTVSPost2010PropOp51
 70
     0
102
RTVSPost2010Prop52
140
1.0
102
RTVSPost2010PropOp52
 70
     0
102
RTVSPost2010Prop53
 90
        2
102
RTVSPost2010PropOp53
 70
     1
102
RTVSPost2010Prop54
  1
strokes_ogs.tif
102
RTVSPost2010PropOp54
 70
     1
102
RTVSPost2010Prop55
280
     0
102
RTVSPost2010PropOp55
 70
     1
102
RTVSPost2010Prop56
140
1.0
102
RTVSPost2010PropOp56
 70
     1
102
RTVSPost2010Prop57
140
1.0
102
RTVSPost2010PropOp57
 70
     1
  0
XRECORD
  5
39B
102
{ACAD_REACTORS
330
39A
102
}
330
39A
100
AcDbXrecord
280
     1
102
RTVSPropertyOp0
 70
     1
102
RTVSPropertyOp1
 70
     1
102
RTVSPropertyOp2
 70
     1
102
RTVSPropertyOp3
 70
     1
102
RTVSPropertyOp4
 70
     1
102
RTVSPropertyOp5
 70
     1
102
RTVSPropertyOp6
 70
     1
102
RTVSPropertyOp7
 70
     1
102
RTVSPropertyOp8
 70
     1
102
RTVSPropertyOp9
 70
     1
102
RTVSPropertyOp10
 70
     1
102
RTVSPropertyOp11
 70
     1
102
RTVSPropertyOp12
 70
     1
102
RTVSPropertyOp13
 70
     1
102
RTVSPropertyOp14
 70
     1
102
RTVSPropertyOp15
 70
     1
102
RTVSPropertyOp16
 70
     1
102
RTVSPropertyOp17
 70
     1
102
RTVSPropertyOp18
 70
     1
102
RTVSPropertyOp19
 70
     1
102
RTVSPropertyOp20
 70
     1
102
RTVSPropertyOp21
 70
     1
102
RTVSPropertyOp22
 70
     1
102
RTVSPropertyOp23
 70
     1
102
RTVSPropertyOp24
 70
     1
102
RTVSPropertyOp25
 70
     1
102
RTVSPropertyOp26
 70
     1
102
RTVSPropertyOp27
 70
     1
102
RTVSPropertyOp28
 70
     1
102
RTVSPropertyOp29
 70
     1
102
RTVSPropertyOp30
 70
     1
102
RTVSPropertyOp31
 70
     1
102
RTVSPropertyOp32
 70
     1
102
RTVSPropertyOp33
 70
     1
102
RTVSPropertyOp34
 70
     1
102
RTVSPropertyOp35
 70
     1
102
RTVSPropertyOp36
 70
     1
102
RTVSPropertyOp37
 70
     1
102
RTVSPropertyOp38
 70
     1
102
RTVSPropertyOp39
 70
     1
102
RTVSPropertyOp40
 70
     1
102
RTVSPropertyOp41
 70
     1
102
RTVSPropertyOp42
 70
     1
102
RTVSPropertyOp43
 70
     1
102
RTVSPropertyOp44
 70
     1
102
RTVSPropertyOp45
 70
     1
102
RTVSPropertyOp46
 70
     1
102
RTVSPropertyOp47
 70
     1
102
RTVSPropertyOp48
 70
     1
102
RTVSPropertyOp49
 70
     1
102
RTVSPropertyOp50
 70
     1
102
RTVSPropertyOp51
 70
     0
102
RTVSPropertyOp52
 70
     0
102
RTVSPropertyOp53
 70
     1
102
RTVSPropertyOp54
 70
     1
102
RTVSPropertyOp55
 70
     1
102
RTVSPropertyOp56
 70
     1
102
RTVSPropertyOp57
 70
     1
102
RTVSPost2010Prop28
280
     0
102
RTVSPost2010PropOp28
 70
     1
102
RTVSPost2010Prop29
280
     1
102
RTVSPost2010PropOp29
 70
     1
102
RTVSPost2010Prop30
280
     1
102
RTVSPost2010PropOp30
 70
     1
102
RTVSPost2010Prop31
280
     0
102
RTVSPost2010PropOp31
 70
     1
102
RTVSPost2010Prop32
280
     0
102
RTVSPost2010PropOp32
 70
     1
102
RTVSPost2010Prop33
280
     0
102
RTVSPost2010PropOp33
 70
     1
102
RTVSPost2010Prop34
280
     0
102
RTVSPost2010PropOp34
 70
     1
102
RTVSPost2010Prop35
280
     0
102
RTVSPost2010PropOp35
 70
     1
102
RTVSPost2010Prop36
280
     0
102
RTVSPost2010PropOp36
 70
     1
102
RTVSPost2010Prop37
 90
       50
102
RTVSPost2010PropOp37
 70
     1
102
RTVSPost2010Prop38
140
0.0
102
RTVSPost2010PropOp38
 70
     1
102
RTVSPost2010Prop39
140
1.0
102
RTVSPost2010PropOp39
 70
     1
102
RTVSPost2010Prop40
 90
        0
102
RTVSPost2010PropOp40
 70
     1
102
RTVSPost2010Prop41ColorIndex
 90
       18
102
RTVSPost2010Prop41ColorRGB
 90
        0
102
RTVSPost2010PropOp41
 70
     1
102
RTVSPost2010Prop42
 90
       50
102
RTVSPost2010PropOp42
 70
     1
102
RTVSPost2010Prop43
 90
        3
102
RTVSPost2010PropOp43
 70
     1
102
RTVSPost2010Prop44ColorIndex
 90
        5
102
RTVSPost2010Prop44ColorRGB
 90
      255
102
RTVSPost2010PropOp44
 70
     1
102
RTVSPost2010Prop45
280
     0
102
RTVSPost2010PropOp45
 70
     1
102
RTVSPost2010Prop46
 90
       50
102
RTVSPost2010PropOp46
 70
     1
102
RTVSPost2010Prop47
 90
       50
102
RTVSPost2010PropOp47
 70
     1
102
RTVSPost2010Prop48
 90
       50
102
RTVSPost2010PropOp48
 70
     1
102
RTVSPost2010Prop49
280
     0
102
RTVSPost2010PropOp49
 70
     1
102
RTVSPost2010Prop50
 90
       50
102
RTVSPost2010PropOp50
 70
     1
102
RTVSPost2010Prop51ColorIndex
 90
      256
102
RTVSPost2010Prop51ColorRGB
 90
-16777216
102
RTVSPost2010PropOp51
 70
     0
102
RTVSPost2010Prop52
140
1.0
102
RTVSPost2010PropOp52
 70
     0
102
RTVSPost2010Prop53
 90
        2
102
RTVSPost2010PropOp53
 70
     1
102
RTVSPost2010Prop54
  1
strokes_ogs.tif
102
RTVSPost2010PropOp54
 70
     1
102
RTVSPost2010Prop55
280
     0
102
RTVSPost2010PropOp55
 70
     1
102
RTVSPost2010Prop56
140
1.0
102
RTVSPost2010PropOp56
 70
     1
102
RTVSPost2010Prop57
140
1.0
102
RTVSPost2010PropOp57
 70
     1
  0
XRECORD
  5
38B
102
{ACAD_REACTORS
330
38A
102
}
330
38A
100
AcDbXrecord
280
     1
102
RTVSPropertyOp0
 70
     1
102
RTVSPropertyOp1
 70
     1
102
RTVSPropertyOp2
 70
     1
102
RTVSPropertyOp3
 70
     1
102
RTVSPropertyOp4
 70
     1
102
RTVSPropertyOp5
 70
     1
102
RTVSPropertyOp6
 70
     1
102
RTVSPropertyOp7
 70
     1
102
RTVSPropertyOp8
 70
     1
102
RTVSPropertyOp9
 70
     1
102
RTVSPropertyOp10
 70
     1
102
RTVSPropertyOp11
 70
     1
102
RTVSPropertyOp12
 70
     1
102
RTVSPropertyOp13
 70
     1
102
RTVSPropertyOp14
 70
     1
102
RTVSPropertyOp15
 70
     1
102
RTVSPropertyOp16
 70
     1
102
RTVSPropertyOp17
 70
     1
102
RTVSPropertyOp18
 70
     1
102
RTVSPropertyOp19
 70
     1
102
RTVSPropertyOp20
 70
     1
102
RTVSPropertyOp21
 70
     1
102
RTVSPropertyOp22
 70
     1
102
RTVSPropertyOp23
 70
     1
102
RTVSPropertyOp24
 70
     1
102
RTVSPropertyOp25
 70
     1
102
RTVSPropertyOp26
 70
     1
102
RTVSPropertyOp27
 70
     1
102
RTVSPropertyOp28
 70
     1
102
RTVSPropertyOp29
 70
     1
102
RTVSPropertyOp30
 70
     1
102
RTVSPropertyOp31
 70
     1
102
RTVSPropertyOp32
 70
     1
102
RTVSPropertyOp33
 70
     1
102
RTVSPropertyOp34
 70
     1
102
RTVSPropertyOp35
 70
     1
102
RTVSPropertyOp36
 70
     1
102
RTVSPropertyOp37
 70
     1
102
RTVSPropertyOp38
 70
     1
102
RTVSPropertyOp39
 70
     1
102
RTVSPropertyOp40
 70
     1
102
RTVSPropertyOp41
 70
     1
102
RTVSPropertyOp42
 70
     1
102
RTVSPropertyOp43
 70
     1
102
RTVSPropertyOp44
 70
     1
102
RTVSPropertyOp45
 70
     1
102
RTVSPropertyOp46
 70
     1
102
RTVSPropertyOp47
 70
     1
102
RTVSPropertyOp48
 70
     1
102
RTVSPropertyOp49
 70
     1
102
RTVSPropertyOp50
 70
     1
102
RTVSPropertyOp51
 70
     0
102
RTVSPropertyOp52
 70
     0
102
RTVSPropertyOp53
 70
     1
102
RTVSPropertyOp54
 70
     1
102
RTVSPropertyOp55
 70
     1
102
RTVSPropertyOp56
 70
     1
102
RTVSPropertyOp57
 70
     1
102
RTVSPost2010Prop28
280
     0
102
RTVSPost2010PropOp28
 70
     1
102
RTVSPost2010Prop29
280
     1
102
RTVSPost2010PropOp29
 70
     1
102
RTVSPost2010Prop30
280
     1
102
RTVSPost2010PropOp30
 70
     1
102
RTVSPost2010Prop31
280
     0
102
RTVSPost2010PropOp31
 70
     1
102
RTVSPost2010Prop32
280
     0
102
RTVSPost2010PropOp32
 70
     1
102
RTVSPost2010Prop33
280
     0
102
RTVSPost2010PropOp33
 70
     1
102
RTVSPost2010Prop34
280
     0
102
RTVSPost2010PropOp34
 70
     1
102
RTVSPost2010Prop35
280
     0
102
RTVSPost2010PropOp35
 70
     1
102
RTVSPost2010Prop36
280
     0
102
RTVSPost2010PropOp36
 70
     1
102
RTVSPost2010Prop37
 90
       50
102
RTVSPost2010PropOp37
 70
     1
102
RTVSPost2010Prop38
140
0.0
102
RTVSPost2010PropOp38
 70
     1
102
RTVSPost2010Prop39
140
1.0
102
RTVSPost2010PropOp39
 70
     1
102
RTVSPost2010Prop40
 90
        0
102
RTVSPost2010PropOp40
 70
     1
102
RTVSPost2010Prop41ColorIndex
 90
       18
102
RTVSPost2010Prop41ColorRGB
 90
        0
102
RTVSPost2010PropOp41
 70
     1
102
RTVSPost2010Prop42
 90
       50
102
RTVSPost2010PropOp42
 70
     1
102
RTVSPost2010Prop43
 90
        3
102
RTVSPost2010PropOp43
 70
     1
102
RTVSPost2010Prop44ColorIndex
 90
        5
102
RTVSPost2010Prop44ColorRGB
 90
      255
102
RTVSPost2010PropOp44
 70
     1
102
RTVSPost2010Prop45
280
     0
102
RTVSPost2010PropOp45
 70
     1
102
RTVSPost2010Prop46
 90
       50
102
RTVSPost2010PropOp46
 70
     1
102
RTVSPost2010Prop47
 90
       50
102
RTVSPost2010PropOp47
 70
     1
102
RTVSPost2010Prop48
 90
       50
102
RTVSPost2010PropOp48
 70
     1
102
RTVSPost2010Prop49
280
     0
102
RTVSPost2010PropOp49
 70
     1
102
RTVSPost2010Prop50
 90
       50
102
RTVSPost2010PropOp50
 70
     1
102
RTVSPost2010Prop51ColorIndex
 90
      256
102
RTVSPost2010Prop51ColorRGB
 90
-16777216
102
RTVSPost2010PropOp51
 70
     0
102
RTVSPost2010Prop52
140
1.0
102
RTVSPost2010PropOp52
 70
     0
102
RTVSPost2010Prop53
 90
        2
102
RTVSPost2010PropOp53
 70
     1
102
RTVSPost2010Prop54
  1
strokes_ogs.tif
102
RTVSPost2010PropOp54
 70
     1
102
RTVSPost2010Prop55
280
     0
102
RTVSPost2010PropOp55
 70
     1
102
RTVSPost2010Prop56
140
1.0
102
RTVSPost2010PropOp56
 70
     1
102
RTVSPost2010Prop57
140
1.0
102
RTVSPost2010PropOp57
 70
     1
  0
XRECORD
  5
37D
102
{ACAD_REACTORS
330
37C
102
}
330
37C
100
AcDbXrecord
280
     1
102
RTVSPropertyOp0
 70
     1
102
RTVSPropertyOp1
 70
     1
102
RTVSPropertyOp2
 70
     1
102
RTVSPropertyOp3
 70
     1
102
RTVSPropertyOp4
 70
     1
102
RTVSPropertyOp5
 70
     1
102
RTVSPropertyOp6
 70
     1
102
RTVSPropertyOp7
 70
     1
102
RTVSPropertyOp8
 70
     1
102
RTVSPropertyOp9
 70
     1
102
RTVSPropertyOp10
 70
     1
102
RTVSPropertyOp11
 70
     1
102
RTVSPropertyOp12
 70
     1
102
RTVSPropertyOp13
 70
     1
102
RTVSPropertyOp14
 70
     1
102
RTVSPropertyOp15
 70
     1
102
RTVSPropertyOp16
 70
     1
102
RTVSPropertyOp17
 70
     1
102
RTVSPropertyOp18
 70
     1
102
RTVSPropertyOp19
 70
     1
102
RTVSPropertyOp20
 70
     1
102
RTVSPropertyOp21
 70
     1
102
RTVSPropertyOp22
 70
     1
102
RTVSPropertyOp23
 70
     1
102
RTVSPropertyOp24
 70
     1
102
RTVSPropertyOp25
 70
     1
102
RTVSPropertyOp26
 70
     1
102
RTVSPropertyOp27
 70
     1
102
RTVSPropertyOp28
 70
     1
102
RTVSPropertyOp29
 70
     1
102
RTVSPropertyOp30
 70
     1
102
RTVSPropertyOp31
 70
     1
102
RTVSPropertyOp32
 70
     1
102
RTVSPropertyOp33
 70
     1
102
RTVSPropertyOp34
 70
     1
102
RTVSPropertyOp35
 70
     1
102
RTVSPropertyOp36
 70
     1
102
RTVSPropertyOp37
 70
     1
102
RTVSPropertyOp38
 70
     1
102
RTVSPropertyOp39
 70
     1
102
RTVSPropertyOp40
 70
     1
102
RTVSPropertyOp41
 70
     1
102
RTVSPropertyOp42
 70
     1
102
RTVSPropertyOp43
 70
     1
102
RTVSPropertyOp44
 70
     1
102
RTVSPropertyOp45
 70
     1
102
RTVSPropertyOp46
 70
     1
102
RTVSPropertyOp47
 70
     1
102
RTVSPropertyOp48
 70
     1
102
RTVSPropertyOp49
 70
     1
102
RTVSPropertyOp50
 70
     1
102
RTVSPropertyOp51
 70
     0
102
RTVSPropertyOp52
 70
     0
102
RTVSPropertyOp53
 70
     1
102
RTVSPropertyOp54
 70
     1
102
RTVSPropertyOp55
 70
     1
102
RTVSPropertyOp56
 70
     1
102
RTVSPropertyOp57
 70
     1
102
RTVSPost2010Prop28
280
     0
102
RTVSPost2010PropOp28
 70
     1
102
RTVSPost2010Prop29
280
     1
102
RTVSPost2010PropOp29
 70
     1
102
RTVSPost2010Prop30
280
     1
102
RTVSPost2010PropOp30
 70
     1
102
RTVSPost2010Prop31
280
     0
102
RTVSPost2010PropOp31
 70
     1
102
RTVSPost2010Prop32
280
     0
102
RTVSPost2010PropOp32
 70
     1
102
RTVSPost2010Prop33
280
     0
102
RTVSPost2010PropOp33
 70
     1
102
RTVSPost2010Prop34
280
     0
102
RTVSPost2010PropOp34
 70
     1
102
RTVSPost2010Prop35
280
     0
102
RTVSPost2010PropOp35
 70
     1
102
RTVSPost2010Prop36
280
     0
102
RTVSPost2010PropOp36
 70
     1
102
RTVSPost2010Prop37
 90
       50
102
RTVSPost2010PropOp37
 70
     1
102
RTVSPost2010Prop38
140
0.0
102
RTVSPost2010PropOp38
 70
     1
102
RTVSPost2010Prop39
140
1.0
102
RTVSPost2010PropOp39
 70
     1
102
RTVSPost2010Prop40
 90
        0
102
RTVSPost2010PropOp40
 70
     1
102
RTVSPost2010Prop41ColorIndex
 90
       18
102
RTVSPost2010Prop41ColorRGB
 90
        0
102
RTVSPost2010PropOp41
 70
     1
102
RTVSPost2010Prop42
 90
       50
102
RTVSPost2010PropOp42
 70
     1
102
RTVSPost2010Prop43
 90
        3
102
RTVSPost2010PropOp43
 70
     1
102
RTVSPost2010Prop44ColorIndex
 90
        5
102
RTVSPost2010Prop44ColorRGB
 90
      255
102
RTVSPost2010PropOp44
 70
     1
102
RTVSPost2010Prop45
280
     0
102
RTVSPost2010PropOp45
 70
     1
102
RTVSPost2010Prop46
 90
       50
102
RTVSPost2010PropOp46
 70
     1
102
RTVSPost2010Prop47
 90
       50
102
RTVSPost2010PropOp47
 70
     1
102
RTVSPost2010Prop48
 90
       50
102
RTVSPost2010PropOp48
 70
     1
102
RTVSPost2010Prop49
280
     0
102
RTVSPost2010PropOp49
 70
     1
102
RTVSPost2010Prop50
 90
       50
102
RTVSPost2010PropOp50
 70
     1
102
RTVSPost2010Prop51ColorIndex
 90
      256
102
RTVSPost2010Prop51ColorRGB
 90
-16777216
102
RTVSPost2010PropOp51
 70
     0
102
RTVSPost2010Prop52
140
1.0
102
RTVSPost2010PropOp52
 70
     0
102
RTVSPost2010Prop53
 90
        2
102
RTVSPost2010PropOp53
 70
     1
102
RTVSPost2010Prop54
  1
strokes_ogs.tif
102
RTVSPost2010PropOp54
 70
     1
102
RTVSPost2010Prop55
280
     0
102
RTVSPost2010PropOp55
 70
     1
102
RTVSPost2010Prop56
140
1.0
102
RTVSPost2010PropOp56
 70
     1
102
RTVSPost2010Prop57
140
1.0
102
RTVSPost2010PropOp57
 70
     1
  0
XRECORD
  5
39D
102
{ACAD_REACTORS
330
39C
102
}
330
39C
100
AcDbXrecord
280
     1
102
RTVSPropertyOp0
 70
     1
102
RTVSPropertyOp1
 70
     1
102
RTVSPropertyOp2
 70
     1
102
RTVSPropertyOp3
 70
     1
102
RTVSPropertyOp4
 70
     1
102
RTVSPropertyOp5
 70
     1
102
RTVSPropertyOp6
 70
     1
102
RTVSPropertyOp7
 70
     1
102
RTVSPropertyOp8
 70
     1
102
RTVSPropertyOp9
 70
     1
102
RTVSPropertyOp10
 70
     1
102
RTVSPropertyOp11
 70
     1
102
RTVSPropertyOp12
 70
     1
102
RTVSPropertyOp13
 70
     1
102
RTVSPropertyOp14
 70
     1
102
RTVSPropertyOp15
 70
     1
102
RTVSPropertyOp16
 70
     1
102
RTVSPropertyOp17
 70
     1
102
RTVSPropertyOp18
 70
     1
102
RTVSPropertyOp19
 70
     1
102
RTVSPropertyOp20
 70
     1
102
RTVSPropertyOp21
 70
     1
102
RTVSPropertyOp22
 70
     1
102
RTVSPropertyOp23
 70
     1
102
RTVSPropertyOp24
 70
     1
102
RTVSPropertyOp25
 70
     1
102
RTVSPropertyOp26
 70
     1
102
RTVSPropertyOp27
 70
     1
102
RTVSPropertyOp28
 70
     1
102
RTVSPropertyOp29
 70
     1
102
RTVSPropertyOp30
 70
     1
102
RTVSPropertyOp31
 70
     1
102
RTVSPropertyOp32
 70
     1
102
RTVSPropertyOp33
 70
     1
102
RTVSPropertyOp34
 70
     1
102
RTVSPropertyOp35
 70
     1
102
RTVSPropertyOp36
 70
     1
102
RTVSPropertyOp37
 70
     1
102
RTVSPropertyOp38
 70
     1
102
RTVSPropertyOp39
 70
     1
102
RTVSPropertyOp40
 70
     1
102
RTVSPropertyOp41
 70
     1
102
RTVSPropertyOp42
 70
     1
102
RTVSPropertyOp43
 70
     1
102
RTVSPropertyOp44
 70
     1
102
RTVSPropertyOp45
 70
     1
102
RTVSPropertyOp46
 70
     1
102
RTVSPropertyOp47
 70
     1
102
RTVSPropertyOp48
 70
     1
102
RTVSPropertyOp49
 70
     1
102
RTVSPropertyOp50
 70
     1
102
RTVSPropertyOp51
 70
     0
102
RTVSPropertyOp52
 70
     0
102
RTVSPropertyOp53
 70
     1
102
RTVSPropertyOp54
 70
     1
102
RTVSPropertyOp55
 70
     1
102
RTVSPropertyOp56
 70
     1
102
RTVSPropertyOp57
 70
     1
102
RTVSPost2010Prop28
280
     0
102
RTVSPost2010PropOp28
 70
     1
102
RTVSPost2010Prop29
280
     1
102
RTVSPost2010PropOp29
 70
     1
102
RTVSPost2010Prop30
280
     1
102
RTVSPost2010PropOp30
 70
     1
102
RTVSPost2010Prop31
280
     0
102
RTVSPost2010PropOp31
 70
     1
102
RTVSPost2010Prop32
280
     0
102
RTVSPost2010PropOp32
 70
     1
102
RTVSPost2010Prop33
280
     0
102
RTVSPost2010PropOp33
 70
     1
102
RTVSPost2010Prop34
280
     0
102
RTVSPost2010PropOp34
 70
     1
102
RTVSPost2010Prop35
280
     0
102
RTVSPost2010PropOp35
 70
     1
102
RTVSPost2010Prop36
280
     0
102
RTVSPost2010PropOp36
 70
     1
102
RTVSPost2010Prop37
 90
       50
102
RTVSPost2010PropOp37
 70
     1
102
RTVSPost2010Prop38
140
0.0
102
RTVSPost2010PropOp38
 70
     1
102
RTVSPost2010Prop39
140
1.0
102
RTVSPost2010PropOp39
 70
     1
102
RTVSPost2010Prop40
 90
        0
102
RTVSPost2010PropOp40
 70
     1
102
RTVSPost2010Prop41ColorIndex
 90
       18
102
RTVSPost2010Prop41ColorRGB
 90
        0
102
RTVSPost2010PropOp41
 70
     1
102
RTVSPost2010Prop42
 90
       50
102
RTVSPost2010PropOp42
 70
     1
102
RTVSPost2010Prop43
 90
        3
102
RTVSPost2010PropOp43
 70
     1
102
RTVSPost2010Prop44ColorIndex
 90
        5
102
RTVSPost2010Prop44ColorRGB
 90
      255
102
RTVSPost2010PropOp44
 70
     1
102
RTVSPost2010Prop45
280
     0
102
RTVSPost2010PropOp45
 70
     1
102
RTVSPost2010Prop46
 90
       50
102
RTVSPost2010PropOp46
 70
     1
102
RTVSPost2010Prop47
 90
       50
102
RTVSPost2010PropOp47
 70
     1
102
RTVSPost2010Prop48
 90
       50
102
RTVSPost2010PropOp48
 70
     1
102
RTVSPost2010Prop49
280
     0
102
RTVSPost2010PropOp49
 70
     1
102
RTVSPost2010Prop50
 90
       50
102
RTVSPost2010PropOp50
 70
     1
102
RTVSPost2010Prop51ColorIndex
 90
      256
102
RTVSPost2010Prop51ColorRGB
 90
-16777216
102
RTVSPost2010PropOp51
 70
     0
102
RTVSPost2010Prop52
140
1.0
102
RTVSPost2010PropOp52
 70
     0
102
RTVSPost2010Prop53
 90
        2
102
RTVSPost2010PropOp53
 70
     1
102
RTVSPost2010Prop54
  1
strokes_ogs.tif
102
RTVSPost2010PropOp54
 70
     1
102
RTVSPost2010Prop55
280
     0
102
RTVSPost2010PropOp55
 70
     1
102
RTVSPost2010Prop56
140
1.0
102
RTVSPost2010PropOp56
 70
     1
102
RTVSPost2010Prop57
140
1.0
102
RTVSPost2010PropOp57
 70
     1
  0
ENDSEC
  0
EOF
